Song name
# A B C D E F G H I J K L M N O P Q R S T U V W X Y Z

Pixies - Bone Machine tab

  INTRO 

 Rhythmic acoustic guitar (Frank Black)
   Dm       A          C       G
| -5-5-5-5-----------|-3-3-3-3--------- |
| -6-6-6-6--5-5-5-5--|-5-5-5-5-3-3-3-3- |
|O-7-7-7-7--6-6-6-6--|-5-5-5-5-4-4-4-4-O|
|O-7-7-7-7--7-7-7-7--|-5-5-5-5-5-5-5-5-O|
| -5-5-5-5--7-7-7-7--|-3-3-3-3-5-5-5-5- |
| ----------5-5-5-5--|---------3-3-3-3- |x4
|            
|
|Lead electric clean guitar (Joey Santiago)
|          
| -5-5-5-5-----------|-3-3-3-3----------- |
| -6-6-6-6-----------|-3-3-3-3----------- |
|O---------7b9r7-5-4-|---------5b7r5-4-4-O|
|O-------------------|-------------------O|
| -------------------|------------------- |
| -------------------|------------------- |x4

  Dm    A    C    G
            This is a song for Carol!



  VERSE I

   Dm      A         C       G
| -5-5-5-5---------|-3-3-3-3--------- |
| -6-6-6-6-5-5-5-5-|-5-5-5-5-3-3-3-3- |
|O-7-7-7-7-6-6-6-6-|-5-5-5-5-4-4-4-4-O|
|O-7-7-7-7-7-7-7-7-|-5-5-5-5-5-5-5-5-O|
| -5-5-5-5-7-7-7-7-|-3-3-3-3-5-5-5-5- |
| ---------5-5-5-5-|---------3-3-3-3- |x4
  
  Dm  A  C          G
        You're into japanese fastfood
  Dm                 A                 C
  And I drop you off with your japanese lover
  G                            Dm
  And you're going to the beach all day
  A                        C              G
  You're so pretty when you're unfaithful to me
  Dm                       A              C     G
  You're so pretty when you're unfaithful to me



  PRE-CHORUS I
                      __________________      __________________
                     | 1, 2, 3               | 4
   Dm       A          C       G               C        G
| -5-5-5-5-----------|-3-3-3-3--------- |    |-3-3-3-3---------|
| -6-6-6-6--5-5-5-5--|-5-5-5-5-3-3-3-3- |    |-5-5-5-5--3------|
|O-7-7-7-7--6-6-6-6--|-5-5-5-5-4-4-4-4-O|    |-5-5-5-5--4------|
|O-7-7-7-7--7-7-7-7--|-5-5-5-5-5-5-5-5-O|    |-5-5-5-5--5------|
| -5-5-5-5--7-7-7-7--|-3-3-3-3-5-5-5-5- |    |-3-3-3-3--5------|
| ----------5-5-5-5--|---------3-3-3-3- |x4  |----------3------|
|            
|          
| -5-5-5-5-----------|-3-3-3-3----------- |  |-3-3-3-3---------|
| -6-6-6-6-----------|-3-3-3-3----------- |  |-3-3-3-3---------|
|O---------7b9r7-5-4-|---------5b7r5-4-4-O|  |----------5b7vvv-|
|O-------------------|-------------------O|  |-----------------|
| -------------------|------------------- |  |-----------------|
| -------------------|------------------- |x4|-----------------|

  Dm        A         C          G
  You're looking like you've got some sun
  Dm         A          c        G
  You're blistered lips have got a kiss
  Dm       A        C       G
  The days are lit, like everyone
  Dm     A      C      G
  Uh-oh! Uh-oh! Uh-oh! Uh-oh!



  CHORUS

  (no chords)
  Your bones got a little machine...

  Dm       A          C        G          Dm       A          C        G
|-5-5-5-5-----------|-3-3-3-3-----------|-5-5-5-5-----------|-3-3-3-3-----|
|-6-6-6-6--5-5-5-5--|-5-5-5-5--3-3-3-3--|-6-6-6-6--5-5-5-5--|-5-5-5-5--3--|
|-7-7-7-7--6-6-6-6--|-5-5-5-5--4-4-4-4--|-7-7-7-7--6-6-6-6--|-5-5-5-5--4--|
|-7-7-7-7--7-7-7-7--|-5-5-5-5--5-5-5-5--|-7-7-7-7--7-7-7-7--|-5-5-5-5--5--|
|-5-5-5-5--7-7-7-7--|-3-3-3-3--5-5-5-5--|-5-5-5-5--7-7-7-7--|-3-3-3-3--5--|
|----------5-5-5-5--|----------3-3-3-3--|----------5-5-5-5--|----------3--|
|            
|          
|-5-5-5-5-----------|-3-3-3-3-----------|-5-5-5-5-----------|-3-3-3-3-----|
|-6-6-6-6-----------|-3-3-3-3-----------|-6-6-6-6-----------|-3-3-3-3-----|
|---------7b9r7-5-4-|---------5b7r5-4-4-|---------7b9r7-5-4-|---------5b7-|
|-------------------|-------------------|-------------------|-------------|
|-------------------|-------------------|-------------------|-------------|
|-------------------|-------------------|-------------------|-------------|

  Aaaaaaaaaaaaaaaaaaah!


  E5       C5       F5       G5
|-------------------------------------|
|-------------------------------------|
|-9-9-9-9--5-5-5-5--------------------|
|-9-9-9-9--5-5-5-5--3-3-3-3--5-5-5-5--|
|-7-7-7-7--3-3-3-3--3-3-3-3--5-5-5-5--|
|-------------------1-1-1-1--3-3-3-3--|

  E5 C5         F5   G5
     You're the bone machine



  BREAKDOWN

   Dm       A          C       G
| -5-5-5-5-----------|-3-3-3-3--------- |
| -6-6-6-6--5-5-5-5--|-5-5-5-5-3-3-3-3- |
|O-7-7-7-7--6-6-6-6--|-5-5-5-5-4-4-4-4-O|
|O-7-7-7-7--7-7-7-7--|-5-5-5-5-5-5-5-5-O|
| -5-5-5-5--7-7-7-7--|-3-3-3-3-5-5-5-5- |
| ----------5-5-5-5--|---------3-3-3-3- |x2
|            
|          
| -5-5-5-5-----------|-3-3-3-3----------- |
| -6-6-6-6-----------|-3-3-3-3----------- |
|O---------7b9r7-5-4-|---------5b7r5-4-4-O|
|O-------------------|-------------------O|
| -------------------|------------------- |
| -------------------|------------------- |x2

  Aaaaaaaaaaaaaaah!



  VERSE II

   Dm       A          C       G
| -5-5-5-5-----------|-3-3-3-3--------- |
| -6-6-6-6--5-5-5-5--|-5-5-5-5-3-3-3-3- |
|O-7-7-7-7--6-6-6-6--|-5-5-5-5-4-4-4-4-O|
|O-7-7-7-7--7-7-7-7--|-5-5-5-5-5-5-5-5-O|
| -5-5-5-5--7-7-7-7--|-3-3-3-3-5-5-5-5- |
| ----------5-5-5-5--|---------3-3-3-3- |x4

  Dm                     A             C         G
  I was talking to peachy-peach about kissy-kiss
  Dm   A   C              G
             You buy me a soda
  Dm   A                   C            G
        You buy me a soda, you buy me a soda 
          Dm                      A
  And you try to molest me in the parking lot
  C                   G
  Yep, yep, yep, yep!



  PRE-CHORUS II

                      __________________      __________________
                     | 1, 2, 3               | 4
   Dm       A          C       G               C        G
| -5-5-5-5-----------|-3-3-3-3--------- |    |-3-3-3-3---------|
| -6-6-6-6--5-5-5-5--|-5-5-5-5-3-3-3-3- |    |-5-5-5-5--3------|
|O-7-7-7-7--6-6-6-6--|-5-5-5-5-4-4-4-4-O|    |-5-5-5-5--4------|
|O-7-7-7-7--7-7-7-7--|-5-5-5-5-5-5-5-5-O|    |-5-5-5-5--5------|
| -5-5-5-5--7-7-7-7--|-3-3-3-3-5-5-5-5- |    |-3-3-3-3--5------|
| ----------5-5-5-5--|---------3-3-3-3- |x4  |----------3------|
|            
|          
| -5-5-5-5-----------|-3-3-3-3----------- |  |-3-3-3-3---------|
| -6-6-6-6-----------|-3-3-3-3----------- |  |-3-3-3-3---------|
|O---------7b9r7-5-4-|---------5b7r5-4-4-O|  |----------5b7vvv-|
|O-------------------|-------------------O|  |-----------------|
| -------------------|------------------- |  |-----------------|
| -------------------|------------------- |x4|-----------------|

  Dm     A         C            G
  I make you pray, you make me hard
  Dm        A     C       G
  Your irish skin looks mexican
  Dm       A       C         G      Dm       A  C  G
  Our love is rice and beans and horses lard



  CHORUS

  (no chords)
  Your bones got a little machine

   Dm       A          C        G         Dm       A          C        G
|-5-5-5-5-----------|-3-3-3-3-----------|-5-5-5-5-----------|-3-3-3-3----|
|-6-6-6-6--5-5-5-5--|-5-5-5-5--3-3-3-3--|-6-6-6-6--5-5-5-5--|-5-5-5-5--3-|
|-6-6-6-6--5-5-5-5--|-5-5-5-5--3-3-3-3--|-6-6-6-6--5-5-5-5--|-5-5-5-5--3-|
|-7-7-7-7--7-7-7-7--|-5-5-5-5--5-5-5-5--|-7-7-7-7--7-7-7-7--|-5-5-5-5--5-|
|-5-5-5-5--7-7-7-7--|-3-3-3-3--5-5-5-5--|-5-5-5-5--7-7-7-7--|-3-3-3-3--5-|
|----------5-5-5-5--|----------3-3-3-3--|----------5-5-5-5--|----------3-|
|            
|          
|-5-5-5-5-----------|-3-3-3-3-----------|-5-5-5-5-----------|-3-3-3-3---------|
|-6-6-6-6-----------|-3-3-3-3-----------|-6-6-6-6-----------|-3-3-3-3---------|
|---------7b9r7-5-4-|---------5b7r5-4-4-|---------7b9r7-5-4-|----------5b7vvv-|
|-------------------|-------------------|-------------------|-----------------|
|-------------------|-------------------|-------------------|-----------------|
|-------------------|-------------------|-------------------|-----------------|

  Aaaaaaaaaaaaaaaaaaaah!!
  (no chords)
  You're the bone machine...



  FINAL BREAKDOWN

    Dm              A                  C               G
| --5---5---5---5-------------------|--3---3---3---3--------- ---------|
| --6---6---6---6---5---5---5---5---|--5---5---5---5---3---3---3---3-- |  
|O--7---7---7---7---6---6---6---6---|--5---5---5---5---4---4---4---4--O|  
|O--7---7---7---7---7---7---7---7---|--5---5---5---5---5---5---5---5--O|
| --5---5---5---5---7---7---7---7---|--3---3---3---3---5---5---5---5-- |  
| ------------------5---5---5---5---|------------------3---3---3---3-- |x3
|
|  (tremolo picking strum at 10th fret)
| -10101010101010101010101010101010-|-10101010101010101010101010101010-|
| -10101010101010101010101010101010-|-10101010101010101010101010101010-|
|O-10101010101010101010101010101010-|-10101010101010101010101010101010-|
|O----------------------------------|----------------------------------|
| ----------------------------------|----------------------------------|
| ----------------------------------|----------------------------------|x3


    Dm              A                  C               G
|--5---5---5---5-------------------|--3---3---3---3--------- --------|
|--6---6---6---6---5---5---5---5---|--5---5---5---5---3---3---3---3--|  
|--7---7---7---7---6---6---6---6---|--5---5---5---5---4---4---4---4--|  
|--7---7---7---7---7---7---7---7---|--5---5---5---5---5---5---5---5--|
|--5---5---5---5---7---7---7---7---|--3---3---3---3---5---5---5---5--|  
|------------------5---5---5---5---|------------------3---3---3---3--|x3
|
|  (tremolo picking strum at 10th fret)
|-1010101010101010\5-5-5-5-5-5-5-5\|\3-3-3-3-3-3-3-3\0-0-0-0-0-0-0-0-|
|-1010101010101010\5-5-5-5-5-5-5-5\|\3-3-3-3-3-3-3-3\0-0-0-0-0-0-0-0-|
|-1010101010101010\5-5-5-5-5-5-5-5\|\3-3-3-3-3-3-3-3\0-0-0-0-0-0-0-0-|
|----------------------------------|---------------------------------|
|----------------------------------|---------------------------------|
|----------------------------------|---------------------------------|x3



  OUTRO

                      __________________      __________________
                     | 1, 2, 3               | 4
   Dm       A          C       G               C        G
| -5-5-5-5-----------|-3-3-3-3--------- |    |-3-3-3-3---------|
| -6-6-6-6--5-5-5-5--|-5-5-5-5-3-3-3-3- |    |-5-5-5-5--3------|
|O-7-7-7-7--6-6-6-6--|-5-5-5-5-4-4-4-4-O|    |-5-5-5-5--4------|
|O-7-7-7-7--7-7-7-7--|-5-5-5-5-5-5-5-5-O|    |-5-5-5-5--5------|
| -5-5-5-5--7-7-7-7--|-3-3-3-3-5-5-5-5- |    |-3-3-3-3--5------|
| ----------5-5-5-5--|---------3-3-3-3- |x4  |----------3------|
|            
|          
| -5-5-5-5-----------|-3-3-3-3----------- |  |-3-3-3-3---------|
| -6-6-6-6-----------|-3-3-3-3----------- |  |-3-3-3-3---------|
|O---------7b9r7-5-4-|---------5b7r5-4-4-O|  |----------5b7vvv-|
|O-------------------|-------------------O|  |-----------------|
| -------------------|------------------- |  |-----------------|
| -------------------|------------------- |x4|-----------------|


  Dm     A      C      G
  Uh-oh! Uh-oh! Uh-oh! Uh-oh!
  Dm     A      C      G
  Uh-oh! Uh-oh! Uh-oh! Uh-oh!
  Dm     A      C      G
  Uh-oh! Uh-oh! Uh-oh! Uh-oh!
  Dm     A      C      G
  Uh-oh! Uh-oh! Uh-oh! Uh-oh!

  (no chords)
  Your bones got a little machine...
Tap to rate this tab
 
# A B C D E F G H I J K L M N O P Q R S T U V W X Y Z