Song name
# A B C D E F G H I J K L M N O P Q R S T U V W X Y Z

Pixies - The Holiday Song tab

Pixies
Song: The Holiday Song
Album: Come On Pilgrim
Tabbed By: schnitzi@cs.ucf.edu 

Intro:
-0-0-0-0-0-0-0-0-0-0-0-0-0-0-0-0-|
-1-1-1-3-3-3-3-3-0-0-0-1-1-1-1-1-|
---------------------------------|
---------------------------------|
---------------------------------|
---------------------------------|

Riff 1
Am     C   F    C    Am     C   F     C
------------------------------------------|
-1-0------------------1-0------------0----|
-----2-0---0---0-2--------2-0---0------2--|
---------2---2----------------2---2-------|
------------------------------------------|
------------------------------------------|


     Am        C         F     C      Am     C           F      C
well sit right down my wicked son and let me tell you a story 
  Am      C        F         C        Am     F     C      F  
about the boy who fell from glory and how he was a wicked son

chorus:
G              F        Am C    F  C
this ain't no holiday       no, no
G             F
but it always turns out this way 
D        
here i am with my hands

Play Riff 1

Verse2: 
   Am       C      F        C        Am               C       F  c
He took his sister from his head And then painted her on the sheets
         Am         C     F         C              Am           C         F   C
And then rolled her up in grass and trees And they kissed 'till they were dead

REPEAT CHORUS

Play Riff 1

Verse 3: 
     Am        C       F    C       Am     C          F   C    
Well sit right down my evil son And let me tell you a story
  Am      C       F         C         Am     C     F      C
About the boy who fell from glory And how he was a wicked son

REPEAT CHORUS

Am C F C (3X)

REPEAT CHORUS

Play Riff 1

then...
---------------------------------|
-1-0-----------------------------|
-----2-0---0---0-2--9-9-9\8/9-9--|
---------2---2-------------------|
---------------------------------|
---------------------------------|
Tap to rate this tab
 
# A B C D E F G H I J K L M N O P Q R S T U V W X Y Z