Guitaretab - guitar tabs
Song name
# A B C D E F G H I J K L M N O P Q R S T U V W X Y Z
Home / P / Pixies / Silver tab

Pixies - Silver tab

Am      Em      Am
In this land of strangers
Em        Am
There are dangers
Em        C     B5
There are sorrows

Am      Em       Am
I can't see this lady
Em    Am
It is shady
     C     B5 Am   Em
I am leaving  tomorrow
Am   Em
Tomorrow
Am   Em
Tomorrow

(solo)

Even there's a reason
It's silver
It's gone

In this land of strangers
There are dangers
There are sorrows
Sorrows 
Sorrows
Sorrows


Intro bass:

g|-----------------------|---|
d|-----------------------|---|
a|-0-------0-------------|---|
e|-----0-------0-2-----4-|-5-|



Slide guitar parts:
[ Tab from: http://www.guitaretab.com/p/pixies/188146.html ]
Part 1
   Am     Em   Am       Em   Am
e|----------------------------------|
b|----------------------------------|
g|-2---22/9---99\2---22/9---99\2----|
d|-2---22/9---99\2---22/9---99\2----|
a|----------------------------------|
e|----------------------------------|

Part 2

e|-----------------|
b|-----------------|
g|-2/-5-5-5\-4-\2--|
d|-2/5-5-5-\4-4\2--|  you can just slide down while alternating between
a|-----------------|  the strings
e|-----------------|


Use these two parts throughout. Part 2 is used on the C B5 parts, and
on the Am Em parts.

Solo
Electric guitar
   Am  Em  Am  Em    Am  Em   Am  Em    Am  Em    Am  Em    Am
e|-------------------------------------------------------------|
b|-------------------------------------------------------------|
g|-----------------------4----2---555555----555555----555555---|
d|--------/7---10--9-7---4--3-2---555555----555555----555555---|
a|-----7-------------------------------------------------------|
e|-5-----------------------------------------------------------|
                                 (quick strumming)
Related for Silver tab