Song name
# A B C D E F G H I J K L M N O P Q R S T U V W X Y Z

Placebo - Special K tab

SONG:Special K
Band:Placebo
Album:Black Market Music

This is not the original part,it's just my own arrangement to play this song whit only
guitar(live Placebo use two guitars).I made this tab by ear,and i know isn't perfect, but
think it's very good.Remember to pay attention to the rythm and to the tuning (6th 
is tuned one and half tone up!!!)
That's all!!If you have any question or doubt (or if you just wanna thank me!!) my mail
Harry-89@hotmail.it

Intro (acustic)
E-----
B-----
G--10-  listen to the song for rythm
D--10-
A--8--
Gb----


Electric
E-------------------------------------6----6---|
B--------------------------------------6----6--|
G----------------------------------------------|
D--4---------------------------------8let-ring-|
A--4-3-4-6-4-3-4-4---4-3-4-6-4-3-4-4-8let-ring-|
Gb-0let-ring-----------------------------------|

E------------------------------------|
B------------------------------------|
G------------------------------------|
D--4---------------------------------|
A--4-3-4-6-4-3-4-4---4-3-4-6-4-3-4-4-|
Gb-0let-ring-------------------------|

Verse x4
E-------6----------------------------------------------------|
B--------6---------------------------------------------------|
G------------------------------------------------------------|
D--8let-ring------------------------------------4-------4----|
A--8let-ring------------------------------------4-------4----|
Gb----------------------------------------------0-------0----|
   Coming up beyond belif on this coronary thief.....

Chorus1 x2
E--------------------------------------|
B--------------------------------------|
G-6-6-6-6-6-6-6-6-8-8-8-8-11-11-11-11--|
D-6-6-6-6-6-6-6-6-8-8-8-8-11-11-11-11--|
E-4-4-4-4-4-4-4-4-6-6-6-6-9--9--9--9---|
Gb-------------------------------------|
  No hesitation,no delay…


X2
E-------------------------------------|
B-------------------------------------|
G-------------------------------------|
D-11-11-11-10-10-10-13-13-13-10-10-10-|
E-------------------------------------|
Gb------------------------------------|
  No hesitation,no delay…

Chorus2
E-----------------------------------------------------------------|
B-----------------------------------------------------------------|
G-6-6-6-6-6-6-6-6-3-3-3-3-3-3-3-3-6-6-6-6-6-6-6-6-3-3-3-3-3-3-3-3-|
D-6-6-6-6-6-6-6-6-3-3-3-3-3-3-3-3-6-6-6-6-6-6-6-6-3-3-3-3-3-3-3-3-|
A-4-4-4-4-4-4-4-4-1-1-1-1-1-1-1-1-4-4-4-4-4-4-4-4-1-1-1-1-1-1-1-1-|
Gb----------------------------------------------------------------|
Gravity no escaping gravity Gravity no escaping not for free i fall

E----------------------------------|
B----------------------------------|
G----------------------------------|
D--4-4-4-4-4-4-4-4-----------------|
A--4-4-4-4-4-4-4-4-9-9-9-8-8-8-8-8-|
Gb-0-0-0-0-0-0-0-0-----------------|
 Down                           hit the
 Ground                         make a
 Heavy sound                    every

E-----------------------------|
B-----------------------------|
G-----------------------------|
D--4-4-4-4-4-4-4-4------------|
A--4-4-4-4-4-4-4-4--13--11--9-|
Gb-0-0-0-0-0-0-0-0------------|   (immediately starts 2nd verse)
  Time          you seem to come around


Verse
Chorus1
Chorus2

Final chorus
E-----------------------------------------------------------------|
B-----------------------------------------------------------------|
G-6-6-6-6-6-6-6-6-3-3-3-3-3-3-3-3-6-6-6-6-6-6-6-6-3-3-3-3-3-3-3-3-|
D-6-6-6-6-6-6-6-6-3-3-3-3-3-3-3-3-6-6-6-6-6-6-6-6-3-3-3-3-3-3-3-3-|
A-4-4-4-4-4-4-4-4-1-1-1-1-1-1-1-1-4-4-4-4-4-4-4-4-1-1-1-1-1-1-1-1-|
Gb----------------------------------------------------------------|
   Gravity no escaping gravity

E----------------------------------|x3
B----------------------------------|
G----------------------------------|
D--4-4-4-4-4-4-4-4-----------------|
A--4-4-4-4-4-4-4-4-9-9-9-8-8-8-8-8-|
Gb-0-0-0-0-0-0-0-0-----------------|
 Gravity


End on
E----------------------------------|
B------------------------------6---|
G------------------------------6---|
D--4-4-4-4-4-4-4-4-------------6---|
A--4-4-4-4-4-4-4-4--13--11--9--4---|
Gb-0-0-0-0-0-0-0-0-----------------|
    Gravity
Tap to rate this tab
# A B C D E F G H I J K L M N O P Q R S T U V W X Y Z