Song name
# A B C D E F G H I J K L M N O P Q R S T U V W X Y Z

Placebo - 36 Degrees tab

Placebo - 36 degrees

Intro/verse

(we were tight, but it falls apart as silver turns to blue...)

e|---------------------------------|
B|-2-2-2-1-2-2-2-1-----------------|
G|-3-3-3-3-3-3-3-3-6-6-6-5-6-6-6-5-|   X4
D|-4-4-4-4-4-4-4-4-6-6-6-6-6-6-6-6-|
A|-4-4-4-4-4-4-4-4-4-4-4-4-4-4-4-4-|
E|---------------------------------|

Chorus

(someone tried to do me ache...)

e|-----------------------------------------|
B|-----------------------------------------|
G|-6-6-6-5-6-6-6-6-5-6-8-8-6-6-6-5-5-5-6-8-|   X4
D|-----------------------------------------|
A|-----------------------------------------|
E|-----------------------------------------|

Verse 2

(with handsight, i was more than blind, lost without a clue...)

e|-----------------------|
B|-----------------------|
G|-5^----5-8-6-5---------|   X4
D|--------------6^--/3/6-|
A|-----------------------|
E|-----------------------|

Chorus

(someone tried to do me ache...)

e|-----------------------------------------|
B|-----------------------------------------|
G|-6-6-6-5-6-6-6-6-5-6-8-8-6-6-6-5-5-5-6-8-|   X4
D|-----------------------------------------|
A|-----------------------------------------|
E|-----------------------------------------|

Interlude

(4,7,2,3,8,5 I got to breathe to stay alive...)

e|----------|
B|----------|
G|----------|   X7
D|-4--------|
A|-4--------|
E|-2^--/9---|

Outro

e|---------------------------------|
B|-2-2-2-1-2-2-2-1-----------------|
G|-3-3-3-3-3-3-3-3-6-6-6-5-6-6-6-5-|   X4
D|-4-4-4-4-4-4-4-4-6-6-6-6-6-6-6-6-|
A|-4-4-4-4-4-4-4-4-4-4-4-4-4-4-4-4-|
E|---------------------------------|

e|-----------------------------------------|
B|-----------------------------------------|
G|-6-6-6-5-6-6-6-6-5-6-8-8-6-6-6-5-5-5-6-8-|   X4
D|-----------------------------------------|
A|-----------------------------------------|
E|-----------------------------------------|

e|----------|
B|----------|
G|-6--------|
D|-6--------|
A|-4^-------|
E|----------|
Tap to rate this tab
# A B C D E F G H I J K L M N O P Q R S T U V W X Y Z