Song name
# A B C D E F G H I J K L M N O P Q R S T U V W X Y Z

Placebo - 20 Century Boy tab

-------------------------------------------------------------------------------
			     20 Century Boy - Placebo
-------------------------------------------------------------------------------

Tabbed by:DasPop
Email:schep_vreugde_en_leef@hotmail.com

standard tuning
intro                                x2    
e|---------------|-------------------------------------------|
B|---------------|-------------------------------------------|
G|-1-1-----1-1---|---1-------------------1-------------------|
D|-2-2-----2-2---|---2-------------------2-------------------|
A|-2-2-----2-2---|---2-------------------2-------------------|
E|---------------|-----0-2-3-0-3b-0-3b-0---0-2-3-0-3b-0-3b-0-|

verse                                       
e|---------------------------------------------------------------------------|
B|---------------------------------------------------------------------------|
G|-2-2-2-2-2-2-2-2-2-2-2-2-2-2-2-2-2-1-------------------1-------------------|
D|-2-2-2-2-2-2-2-2-2-2-2-2-2-2-2-2-2-2-------------------2-------------------|
A|-0-0-0-0-0-0-0-0-0-0-0-0-0-0-0-0-0-2-------------------2-------------------|x2
E|-------------------------------------0-2-3-0-3b-0-3b-0---0-2-3-0-3b-0-3b-0-|

chorus
e|-------------------------------------------|
B|-------------------------------------------|
G|-2-2-2-2-2-2-2-4-4-4-4-4-4-4-1-1-1-1-1-1-1-|
D|-2-2-2-2-2-2-2-4-4-4-4-4-4-4-2-2-2-2-2-2-2-|
A|-0-0-0-0-0-0-0-2-2-2-2-2-2-2-2-2-2-2-2-2-2-|
E|-------------------------------------------|

verse
chorus
bridge
e|-------------x-x-x-x-x-x-------------x-x-x-x-x-x-------------x-x-x-x-x-x-|
B|-5-5-5-5-5-5-x-x-x-x-x-x-5-5-5-5-5-5-x-x-x-x-x-x-5-5-5-5-5-5-x-x-x-x-x-x-|
G|-------------x-x-x-x-x-x-------------x-x-x-x-x-x-------------x-x-x-x-x-x-|
D|-------------x-x-x-x-x-x-------------x-x-x-x-x-x-------------x-x-x-x-x-x-|
A|-------------x-x-x-x-x-x-------------x-x-x-x-x-x-------------x-x-x-x-x-x-|
E|-------------x-x-x-x-x-x-------------x-x-x-x-x-x-------------x-x-x-x-x-x-|
x a couple of times
verse
chorus
bridge

placebo goes soul! Lots of fun with it you all!
joep
Tap to rate this tab
# A B C D E F G H I J K L M N O P Q R S T U V W X Y Z