Song name
# A B C D E F G H I J K L M N O P Q R S T U V W X Y Z

Plain White Ts - Easy Way Out tab

Intro:

e|-----0-0---0-2-0-----------------0-0---0-2-7-7-5-4-5-4-0----|
B|---------2-------4-4-4-5-4-0---------2----------------------|
G|------------------------------------------------------------|
D|------------------------------------------------------------|
A|------------------------------------------------------------|
E|------------------------------------------------------------|


Verse:

e|------------------------------------|
B|------------------------------------|
G|-----6-6-6-----2-2-2---------4-4----|  x8
D|-----6-6-6-----2-2-2---------4-4----|
A|-----4-4-4-----0-0-0---------2-2----|


Pre-Chorus:

e|--------------------------|
B|--------------------------|
G|-----2---------4----------|
D|-----2-(x16)---4-(x16)----|
A|-----0---------2----------|
....They'll never know what life......


Chorus:

e|-------------------------------------------|
B|-------------------------------------------|
G|----6-6-6-----2-2-2-----4-4-4--------------|
D|----6-6-6-----2-2-2-----4-4-4-----2-2-2----|
A|----4-4-4-----0-0-0-----2-2-2-----2-2-2----|
E|----------------------------------0-0-0----|


Solo:

B|-----2-0-2-----2-0-2-----4-----5-----2-0-2-----2-0-2-----5-----4----| x2

The part after the solo have the same chords as the verse.
(If you got a point to make, make it......)

Play the pre-chorus twice now. After, it's just the chorus till the

Ending:

e|------------------------|
B|------------------------|
G|-----6-6-6-----2-2-2----|
D|-----6-6-6-----2-2-2----|
A|-----4-4-4-----0-0-0----|
E|------------------------|

I think this is right, but I'm not 100% sure. You have to figure out the rythm yourself though.
Tap to rate this tab
# A B C D E F G H I J K L M N O P Q R S T U V W X Y Z