Song name
# A B C D E F G H I J K L M N O P Q R S T U V W X Y Z

Plain White Ts - Losing Myself tab

-------------------------------------------------------------------------------
			    Losing Myself - Plain White T's
-------------------------------------------------------------------------------
Tabbed by: Andres "silvadolla" Ali
Email: andres.ali@gmail.com

Tuning: EADGBE

Didn't see any other tabs for this song. I did my best to tab it out.
There's palm-muting in the song that's pretty obvious so I didn't include it here. Also, 
to the song for rhythm and timing.

Intro:
e|--------------------------------------------------------------------------|
B|--------------------------------------------------------------------------|
G|--------------------------------------------------------------------------|
D|---4-4--4-4--7-7--12/11-11--11/9------7-7--11-11-6--7---------------------|
A|---4-4--4-4--7-7--12/11-11--11/9------7-7--11-11-6--7---------------------|
E|---2-2--2-2--5-5--10/9--9---9/-7------5-5--9--9--4--5---------------------|x2

Chorus
e|----------------------------------------------------|
B|----------------------------------------------------|
G|- --------------------------------------------------|
D|-4-7-4-7-4-7-4-7-4-7-4-7-4-7-4-7--7---------7-------|
A|----------------------------------7---------7-------|
E|----------------------------------5/4-4-4---5/4-4-4-|

Verse:
e|--------------------------------------------------------------------------|
B|--------------------------------------------------------------------------|
G|--------------------------------------------------------------------------|
D|---4-4--4-4--7-7--12/11-11--11/9------7-7--11-11-6--7---------------------|
A|---4-4--4-4--7-7--12/11-11--11/9------7-7--11-11-6--7---------------------|
E|---2-2--2-2--5-5--10/9--9---9/-7------5-5--9--9--4--5---------------------|x2

Chorus
e|----------------------------------------------------|
B|----------------------------------------------------|
G|- --------------------------------------------------|
D|-4-7-4-7-4-7-4-7-4-7-4-7-4-7-4-7--7---------7-------|
A|----------------------------------7---------7-------|
E|----------------------------------5/4-4-4---5/4-4-4-| x2

interlude x2:

e|-----------------------------------------------|
B|-----------------------------------------------|
G|-----------------------------------------------|
D|--4-4-4-4-4-4-4-4---12-12-12-12-12-12-12-12----|
A|--4-4-4-4-4-4-4-4---12-12-12-12-12-12-12-12----|
E|--2-2-2-2-2-2-2-2---10-10-10-10-10-10-10-10----|

e|--------------------------------------------------------------------------|
B|--------------------------------------------------------------------------|
G|--------------------------------------------------------------------------|
D|--11-11-11-11-11-11-11-11---9-9-9-9-9-9-9-9-------------------------------|
A|--11-11-11-11-11-11-11-11---9-9-9-9-9-9-9-9-------------------------------|
E|--9--9--9--9--9--9--9--9----7-7-7-7-7-7-7-7-------------------------------|

after repeating interlude twice play A5 and then G#5


fill:

e|---------------------------------------------------------------------------|
B|---------------------------------------------------------------------------|
G|---4-7-4-7-4-------9-7------4-7-4-7-4-------7-6----------------------------|
D|-------------7-7-7--------------------7-7-7--------------------------------|
A|---------------------------------------------------------------------------|
E|---------------------------------------------------------------------------|

Verse:
e|--------------------------------------------------------------------------|
B|--------------------------------------------------------------------------|
G|--------------------------------------------------------------------------|
D|---4-4--4-4--7-7--12/11-11--11/9------7-7--11-11-6--7---------------------|
A|---4-4--4-4--7-7--12/11-11--11/9------7-7--11-11-6--7---------------------|
E|---2-2--2-2--5-5--10/9--9---9/-7------5-5--9--9--4--5---------------------|x2

Chorus
e|----------------------------------------------------|
B|----------------------------------------------------|
G|- --------------------------------------------------|
D|-4-7-4-7-4-7-4-7-4-7-4-7-4-7-4-7--7---------7-------|
A|----------------------------------7---------7-------|
E|----------------------------------5/4-4-4---5/4-4-4-| x2

interlude x2:

e|-----------------------------------------------|
B|-----------------------------------------------|
G|-----------------------------------------------|
D|--4-4-4-4-4-4-4-4---12-12-12-12-12-12-12-12----|
A|--4-4-4-4-4-4-4-4---12-12-12-12-12-12-12-12----|
E|--2-2-2-2-2-2-2-2---10-10-10-10-10-10-10-10----|

e|--------------------------------------------------------------------------|
B|--------------------------------------------------------------------------|
G|--------------------------------------------------------------------------|
D|--11-11-11-11-11-11-11-11---9-9-9-9-9-9-9-9-------------------------------|
A|--11-11-11-11-11-11-11-11---9-9-9-9-9-9-9-9-------------------------------|
E|--9--9--9--9--9--9--9--9----7-7-7-7-7-7-7-7-------------------------------|

fill x3:

e|----------------------------------------------------|
B|----------------------------------------------------|
G|----------------------------------------------------|
D|--7-7-7-7-7-7-7-7-----11-11-11-11-11-11-11-11-------|
A|--7-7-7-7-7-7-7-7--x2-11-11-11-11-11-11-11-11-x2----|
E|--5-5-5-5-5-5-5-5------9--9--9--9--9--9--9--9-------|

e|---------------------------------------------------------------------------|
B|---------------------------------------------------------------------------|
G|---------------------------------------------------------------------------|
D|--4-4-4-4-4-4-4-4----------7-7-7-7-7-7-7-7---------------------------------|
A|--4-4-4-4-4-4-4-4--x2------7-7-7-7-7-7-7-7--x2-----------------------------|
E|--2-2-2-2-2-2-2-2----------5-5-5-5-5-5-5-5---------------------------------|


interlude x4:

e|-----------------------------------------------|
B|-----------------------------------------------|
G|-----------------------------------------------|
D|--4-4-4-4-4-4-4-4---12-12-12-12-12-12-12-12----|
A|--4-4-4-4-4-4-4-4---12-12-12-12-12-12-12-12----|
E|--2-2-2-2-2-2-2-2---10-10-10-10-10-10-10-10----|

e|--------------------------------------------------------------------------|
B|--------------------------------------------------------------------------|
G|--------------------------------------------------------------------------|
D|--11-11-11-11-11-11-11-11---9-9-9-9-9-9-9-9-------------------------------|
A|--11-11-11-11-11-11-11-11---9-9-9-9-9-9-9-9-------------------------------|
E|--9--9--9--9--9--9--9--9----7-7-7-7-7-7-7-7-------------------------------|


After repeating the 4th time play A5, G#5, and end on F#5


That's it! Please send any comments/suggestions/corrections to me at 
Thanks

| /  slide up
| \  slide down
| h  hammer-on
| p  pull-off
| ~  vibrato
| +  harmonic
| x  Mute note
===============================================================================
Tap to rate this tab
 
# A B C D E F G H I J K L M N O P Q R S T U V W X Y Z