Song name
# A B C D E F G H I J K L M N O P Q R S T U V W X Y Z

Plain White Ts - 1 2 3 4 tab

1,2,3,4 - Plain White T's

standard tuning

the video of this song is pretty good,i love to watch it on MTV cos it's kinda funny 
at people dating for years while i'm here still alone lol

intro

|------------------------9-11-12---12-14p12--12-|
|--12-9-12----12-----12------------13--------12-|
|----------11-----9-----------------------------|
|-----------------------------------------------|
|-----------------------------------------------|
|-----------------------------------------------|

Verse 1:
D
give me more lovin then i've ever had.
A
make it all better when i'm feelin sad.
Bm                                            A
tell me that i'm special even when i know i'm not.
D
make me feel good when i hurt so bad.
A
barely gettin mad,
              Bm
im so glad I found you.
               A
I love bein around you.
             G
you make it easy,

           A
as easy as 1 2,(1 2 3 4.)


Chorus:
             D         A       Bm          A      G
theres only one thing two do three words four you.
G   D
I love you.
(I love you)

             D       A              Bm
theres only one way two say those three words
      A               G
and that's what i'll do.

G   D
i love you.
(i love you)

Verse 2:
D
give me more lovin from the very start.
A
piece me back together when i fall apart.
Bm                                               A
tell me things you never even tell your closest friends.
D
make me feel good when i hurt so bad.
A                                      Bm
best that i've had im so glad that i found you.
A
i love bein around you.

             G              A
you make it easy as easy as 1 2,(1 2 3 4.)

Chorus:
             D         A      Bm          A      G
theres only one thing two do three words four you.
G   D
i love you.

             D      A              Bm
theres only one way two say those three words
    A                  G
and that's what i'll do.
     D
i love you.  i love you


Melody

|----2s4-4-4-0-2s4-4---2s4-4-4-0-2s4-4---2s4-4-4-0-2s4-4-0-2-0-----|
|--------------------------------------------------------------4-0-|
|------------------------------------------------------------------|
|------------------------------------------------------------------|
|------------------------------------------------------------------|
|------------------------------------------------------------------|

|----2s4-4-4-0-2s4-4---2s4-4-4-7-5-4-2-2-4---0-0-0-4-2-0---|
|--------------------------------------------------------0-|
|----------------------------------------------------------|
|----------------------------------------------------------|
|----------------------------------------------------------|
|----------------------------------------------------------|

G                A
you make it easy, its easy as 1234

            D          A      Bm         A       G
theres only one thing two do three words four you
G   D
i love you

             D       A             Bm
theres only one way two say those three words
A                G
thats what i'll do
   D
i love you

outro same as intro
Tap to rate this tab
# A B C D E F G H I J K L M N O P Q R S T U V W X Y Z