Song name
# A B C D E F G H I J K L M N O P Q R S T U V W X Y Z

Plain White Ts - Take Me Away tab

-----------------------------
Take Me Away ~ Plain White Ts
-----------------------------
Album: All That We Needed

Tabbed By: Russcool
(I know, pretty lame name)

Tuning: STANDARD
(Both Guitars)

Guitar 1: (low to high) E-A-D-G-B-E

Guitar 2: (low to high) E-A-D-G-B-E


I'm not to sure about if I'm using the correct notation,
but I'm pretty happy with the tab. I think the notes are
right, just no the measurement.



INTRO

Guitar 1
E|-------------|-------------|
B|---<5>-------|---5b--------|
G|-------------|-------------|
D|-------------|-------------|
A|-------------|-------------|
E|-------------|-------------|

Guitar 2

E|-----------|-----------|
B|-----------|-----------|
G|---7-------|---7-------|
D|---7-------|---7-------|
A|---5-------|---5-------|
E|-----------|-----------|


VERSE 1

Guitar 1
E|-----------|-----------|--------------|
B|-----------|-----------|--------------|
G|---7-------|-----------|--------------|
D|---7-------|---7-------|---5---7------|
A|---5-------|---7-------|---5---7------|
E|-----------|---5-------|---3---5------|

Guitar 2
E|-----------|-----------|--------------|
B|-----------|-----------|--------------|
G|---7-------|-----------|--------------|
D|---7-------|---7-------|---5---7------|
A|---5-------|---7-------|---5---7------|
E|-----------|---5-------|---3---5------|

Guitar 1
E|-----------|-----------|--------------|
B|-----------|-----------|--------------|
G|---7-------|-----------|--------------|
D|---7-------|---7-------|---5---7------|
A|---5-------|---7-------|---5---7------|
E|-----------|---5-------|---3---5------|

Guitar 2 (Palm Mute)
E|----------------------|----------------------|----------------------|
B|----------------------|----------------------|----------------------|
G|----------------------|----------------------|----------------------|
D|---7-7-7-7-7-7-7-7----|----------------------|----------------------|
A|---5-5-5-5-5-5-5-5----|---7-7-7-7-7-7-7-7----|---5-5-5-5-7-7-7-7----|
E|----------------------|---5-5-5-5-5-5-5-5----|---3-3-3-3-5-5-5-5----|


PRE-CHORUS

Guitar 1
E|----------------------|----------------------|
B|----------------------|----------------------|
G|---7-7-7-7-7-7-7-7----|----------------------|
D|---7-7-7-7-7-7-7-7----|---5-5-5-5-5-5-5-5----|
A|---5-5-5-5-5-5-5-5----|---5-5-5-5-5-5-5-5----|
E|----------------------|----------------------|

Guitar 2
E|----------------------|----------------------|
B|----------------------|----------------------|
G|---7-7-7-7-7-7-7-7----|----------------------|
D|---7-7-7-7-7-7-7-7----|---5-5-5-5-5-5-5-5----|
A|---5-5-5-5-5-5-5-5----|---5-5-5-5-5-5-5-5----|
E|----------------------|----------------------|


CHORUS

Guitar 1
E|----------------------|----------------------|----------------------|----------------------|
B|----------------------|----------------------|----------------------|----------------------|
G|---7-7-7-7-7-7-7-7----|---7-7-7-7-7-7-7-7----|----------------------|----------------------|
D|---7-7-7-7-7-7-7-7----|---7-7-7-7-7-7-7-7----|---7-7-7-7-7-7-7-7----|---7-7-7-7-7-7-7-7----|
A|---5-5-5-5-5-5-5-5----|---5-5-5-5-5-5-5-5----|---7-7-7-7-7-7-7-7----|---7-7-7-7-7-7-7-7----|
E|----------------------|----------------------|---5-5-5-5-5-5-5-5----|---5-5-5-5-5-5-5-5----|

Guitar 2
E|----------------------|----------------------|----------------------|----------------------|
B|----------------------|----------------------|----------------------|----------------------|
G|---7-7-7-7-7-7-7-7----|---7-7-7-7-7-7-7-7----|----------------------|----------------------|
D|---7-7-7-7-7-7-7-7----|---7-7-7-7-7-7-7-7----|---7-7-7-7-7-7-7-7----|---7-7-7-7-7-7-7-7----|
A|---5-5-5-5-5-5-5-5----|---5-5-5-5-5-5-5-5----|---7-7-7-7-7-7-7-7----|---7-7-7-7-7-7-7-7----|
E|----------------------|----------------------|---5-5-5-5-5-5-5-5----|---5-5-5-5-5-5-5-5----|

Guitar 1
E|----------------------|----------------------|
B|----------------------|----------------------|
G|----------------------|----------------------|
D|---9-9-9-9-9-9-9-9----|---9-9-9-9-9-9-9-9----|
A|---9-9-9-9-9-9-9-9----|---9-9-9-9-9-9-9-9----|
E|---7-7-7-7-7-7-7-7----|---7-7-7-7-7-7-7-7----|

Guitar 2
E|----------------------|----------------------|
B|----------------------|----------------------|
G|----------------------|----------------------|
D|---9-9-9-9-9-9-9-9----|---9-9-9-9-9-9-9-9----|
A|---9-9-9-9-9-9-9-9----|---9-9-9-9-9-9-9-9----|
E|---7-7-7-7-7-7-7-7----|---7-7-7-7-7-7-7-7----|

Guitar 1
E|------------------------------|----------------------|
B|------------------------------|----------------------|
G|---12-12-12-12-11-11-11-11----|---9-9-9-9-7-7-7-7----|
D|----X--X--X--X--X--X--X--X----|---X-X-X-X-X-X-X-X----|
A|---10-10-10-10--9--9--9--9----|---7-7-7-7-5-5-5-5----|
E|------------------------------|----------------------|

Guitar 2
E|----------------------|----------------------|
B|----------------------|----------------------|
G|----------------------|----------------------|
D|---5-5-5-5-5-5-5-5----|---5-5-5-5-5-5-5-5----|
A|---5-5-5-5-5-5-5-5----|---5-5-5-5-5-5-5-5----|
E|---3-3-3-3-3-3-3-3----|---3-3-3-3-3-3-3-3----|

Guitar 1
E|----------------------|----------------------|----------------------|----------------------|
B|----------------------|----------------------|----------------------|----------------------|
G|---7-7-7-7-7-7-7-7----|---7-7-7-7-7-7-7-7----|----------------------|----------------------|
D|---7-7-7-7-7-7-7-7----|---7-7-7-7-7-7-7-7----|---7-7-7-7-7-7-7-7----|---7-7-7-7-7-7-7-7----|
A|---5-5-5-5-5-5-5-5----|---5-5-5-5-5-5-5-5----|---7-7-7-7-7-7-7-7----|---7-7-7-7-7-7-7-7----|
E|----------------------|----------------------|---5-5-5-5-5-5-5-5----|---5-5-5-5-5-5-5-5----|

Guitar 2
E|----------------------|----------------------|----------------------|----------------------|
B|----------------------|----------------------|----------------------|----------------------|
G|---7-7-7-7-7-7-7-7----|---7-7-7-7-7-7-7-7----|----------------------|----------------------|
D|---7-7-7-7-7-7-7-7----|---7-7-7-7-7-7-7-7----|---7-7-7-7-7-7-7-7----|---7-7-7-7-7-7-7-7----|
A|---5-5-5-5-5-5-5-5----|---5-5-5-5-5-5-5-5----|---7-7-7-7-7-7-7-7----|---7-7-7-7-7-7-7-7----|
E|----------------------|----------------------|---5-5-5-5-5-5-5-5----|---5-5-5-5-5-5-5-5----|

Guitar 1
E|----------------------|----------------------|
B|----------------------|----------------------|
G|----------------------|----------------------|
D|---9-9-9-9-9-9-9-9----|---9-9-9-9-9-9-9-9----|
A|---9-9-9-9-9-9-9-9----|---9-9-9-9-9-9-9-9----|
E|---7-7-7-7-7-7-7-7----|---7-7-7-7-7-7-7-7----|

Guitar 2
E|----------------------|----------------------|
B|----------------------|----------------------|
G|----------------------|----------------------|
D|---9-9-9-9-9-9-9-9----|---9-9-9-9-9-9-9-9----|
A|---9-9-9-9-9-9-9-9----|---9-9-9-9-9-9-9-9----|
E|---7-7-7-7-7-7-7-7----|---7-7-7-7-7-7-7-7----|

Guitar 1
E|------------------------------|----------------------|
B|------------------------------|----------------------|
G|---12-12-12-12-11-11-11-11----|---9-9-9-9-7-7-7-7----|
D|----X--X--X--X--X--X--X--X----|---X-X-X-X-X-X-X-X----|
A|---10-10-10-10--9--9--9--9----|---7-7-7-7-5-5-5-5----|
E|------------------------------|----------------------|

Guitar 2
E|----------------------|----------------------|
B|----------------------|----------------------|
G|----------------------|----------------------|
D|---5-5-5-5-5-5-5-5----|---5-5-5-5-5-5-5-5----|
A|---5-5-5-5-5-5-5-5----|---5-5-5-5-5-5-5-5----|
E|---3-3-3-3-3-3-3-3----|---3-3-3-3-3-3-3-3----|


VERSE 2

Guitar 1
E|-----------|-----------|--------------|
B|-----------|-----------|--------------|
G|---7-------|-----------|--------------|
D|---7-------|---7-------|---5---7------|
A|---5-------|---7-------|---5---7------|
E|-----------|---5-------|---3---5------|

Guitar 2 (Palm Mute)
E|----------------------|----------------------|----------------------|
B|----------------------|----------------------|----------------------|
G|----------------------|----------------------|----------------------|
D|---7-7-7-7-7-7-7-7----|----------------------|----------------------|
A|---5-5-5-5-5-5-5-5----|---7-7-7-7-7-7-7-7----|---5-5-5-5-7-7-7-7----|
E|----------------------|---5-5-5-5-5-5-5-5----|---3-3-3-3-5-5-5-5----|

Guitar 1
E|-----------|-----------|--------------|
B|-----------|-----------|--------------|
G|---7-------|-----------|--------------|
D|---7-------|---7-------|---5---7------|
A|---5-------|---7-------|---5---7------|
E|-----------|---5-------|---3---5------|

Guitar 2 (Palm Mute)
E|----------------------|----------------------|----------------------|
B|----------------------|----------------------|----------------------|
G|----------------------|----------------------|----------------------|
D|---7-7-7-7-7-7-7-7----|----------------------|----------------------|
A|---5-5-5-5-5-5-5-5----|---7-7-7-7-7-7-7-7----|---5-5-5-5-7-7-7-7----|
E|----------------------|---5-5-5-5-5-5-5-5----|---3-3-3-3-5-5-5-5----|


PRE-CHORUS


CHORUS


SOLO

(Not to sure about this. Sounds okay, though.)

Guitar 1
E|--------------------------|------------------------|-------------------|
B|---10-10-10-10-8-8-8-7----|---(7)---10-10-10-10----|---8-8-8-8-10------|
G|---11-11-11-11-9-9-9-7----|---(7)---11-11-11-11----|---9-9-9-9-11------|
D|--------------------------|------------------------|-------------------|
A|--------------------------|------------------------|-------------------|
E|--------------------------|------------------------|-------------------|

E|--------------------------|------------------------|------------------------------|
B|---10-10-10-10-8-8-8-7----|---(7)---10-10-10-10----|---10-10-10-10-10-10-10-10----|
G|---11-11-11-11-9-9-9-7----|---(7)---11-11-11-11----|---11-11-11-11-11-11-11-11----|
D|--------------------------|------------------------|------------------------------|
A|--------------------------|------------------------|------------------------------|
E|--------------------------|------------------------|------------------------------|


CHORUS


CHORUS


OUTRO

Guitar 1
E|------------------|
B|------------------|
G|---7-7-7-7-7------|
D|---7-7-7-7-7------|
A|---5-5-5-5-5------|
E|------------------|

Guitar 2
E|------------------|
B|------------------|
G|---7-7-7-7-7------|
D|---7-7-7-7-7------|
A|---5-5-5-5-5------|
E|------------------|






/-----------------\
|     LEGEND:     |
|-----------------|
| <5>   Harmonic  | 
| 5b    Bend      |
\-----------------/




I will admit, this is probably my poorest tab.

That doesn't mean it isn't good!
Tap to rate this tab
 
# A B C D E F G H I J K L M N O P Q R S T U V W X Y Z