Guitaretab - guitar tabs
Song name
# A B C D E F G H I J K L M N O P Q R S T U V W X Y Z

Planes Mistaken For Stars - Standing Still Fast tab

Tabbed by: Liam (knifeinthemarathon@msn.com)

This is the electric/rhythm guitar part of the song.
Planes Mistaken For Stars play in "drop-D", although it isn't neccessary for this song.

Note: On the original recording, the open A is sometimes played.

Intro:

E|------------------||
B|------------------||
G|-7----------------||
D|-5----------------||
A|------------------||
D|------------------||
x59


Verse:

E|------------------||
B|------------------||
G|-9--7--5----------||
D|-7--5--3----------||
A|------------------||
D|------------------||
x3 x4 x8

(Play 8 times)


Bridge:
[ Tab from: http://www.guitaretab.com/p/planes-mistaken-for-stars/90847.html ]
E|---------------------------------------------------------------------------||
B|-----1-----1---1------1---1------------1-----1---1------1-----1---1--------||
G|---0-----0----------0-------0---0----0-----0----------0-----0--------------||
D|-3-----3-----3----2-----2-----2--------------------------------------------||
A|-----------------------------------3-----3-----3----2-----2-----2----------||
D|---------------------------------------------------------------------------||

(Play 5 times)


Fill:

E|------------------||
B|------------------||
G|-4h5p4------------||
D|------------------||
A|------------------||
D|------------------||


Outro:

E|--------------------------------------------------------||
B|-----1------1------1-----1---1------1-----1---1---------||
G|---0------0------0-----0----------0-----0---------------||
D|-3------2-----------------------------------------------||
A|---------------3-----3-----3----2-----2-----2-----------||
D|--------------------------------------------------------||
Related for Standing Still Fast tab
Advertisement will be closed in 10 seconds