Song name
# A B C D E F G H I J K L M N O P Q R S T U V W X Y Z

Planet Smashers - Change tab

standard tuning
you basically play three chords at given times.  ska up-picking.

intro
e-7-7--5-5--7-7--5-5--7-7--5-5--7-7--4-4--|
b-7-7--5-5--7-7--5-5--7-7--5-5--7-7--5-5--|
g-8-8--6-6--8-8--6-6--8-8--6-6--8-8--6-6--|
d-9-9--7-7--9-9--7-7--9-9--7-7--9-9--6-6--|
a-----------------------------------------|
e-----------------------------------------|

verse first riff
e-7-7--5-5--7-7--5-5-------- t--7-7-7-7-5-5-7-7----|
b-7-7--5-5--7-7--5-5- repeat h--7-7-7-7-5-5-7-7----|
g-8-8--6-6--8-8--6-6- many   e--8-8-8-8-6-6-8-8----|
d-9-9--7-7--9-9--7-7- times  n--9-9-9-9-7-7-9-9----|
a-------------------- -----------------------------|
e-------------------- -----------------------------|

2nd riff
e-7-7-7-7-4-4-4-4--5-5-5-5-4-4-4-4--|
b-7-7-7-7-5-5-5-5--5-5-5-5-5-5-5-5--| repeat
g-8-8-8-8-6-6-6-6--6-6-6-6-6-6-6-6--| couple
d-9-9-9-9-6-6-6-6--7-7-7-7-6-6-6-6--| times
a-----------------------------------|
e-----------------------------------|

chorus
e-7-7-7-7-7-7-7-7--4-4-|
b-7-7-7-7-7-7-7-7--5-5-| repeat
g-8-8-8-8-8-8-8-8--6-6-| couple
d-9-9-9-9-9-9-9-9--6-6-| times
a----------------------|
e----------------------|

solo
rhythm guitar switches playing the 7789 and 4566

lead (could be bass, but i'll tab it for guitar, kinda hard to hear at times)
e---------------------------------------------------------|
b---------------------------------------------------------|
g---------------------------------------------------------|
d---------------------------------------------------------|
a---4-4-442-2~--767676-4-2-22~------2-----2-----2-------2-|
e-2-----------------------------2h4---2h4---4p2---4p2p0---|

e--------------------------------------------------------------|
b--------------------------------------------------------------|
g--------------------------------------------------------------|
d-----------------9-9~-----------------------------------------|
a-767676-4-2-22~-----------2-----2-----2~------2-----2-----2~--|
e----------------------2h4---2h4---4p2-----2h4---2h4---4p2-----|

e-------------------|
b-------------------|
g-------------------|
d-------------------| 2x
a---7-4---4-------2-|
e-5-----5---5-2-5---|
Tap to rate this tab
# A B C D E F G H I J K L M N O P Q R S T U V W X Y Z