Song name
# A B C D E F G H I J K L M N O P Q R S T U V W X Y Z

Planetshakers - Get Up chords

-------------------------------------------------------------------------------
			     Get Up - Planetshakers
-------------------------------------------------------------------------------
Tabbed by:Hamish Anderson
Email:epiphone_2@hotmail.com

This is an amazing song and I love it so much that I decided to tab it.
Im not putting in Palm Mute and hammer on/pull off signs as you can figure it out when 
listen.
God Bless. Bring Great Worship!

Tuning:Drop D

Intro & Verse
e|--------------------------------------------------|
B|--------------------------------------------------|
G|--------------------------------------------------|x4
D|---------2-3-3--------------2-3-3-----------------|
A|-0-----0-0-1-1-5-0-3-3-0--0-0-1-1-5---------------|
D|-0-----0-------5-0-3-3-0--0-------5-0-0-3-3-0-0-3-|

Pre-Chorus
e|----------------------------------|
B|----------------------------------|
G|----------------------------------|x2
D|-777777022222203333330555555------|
A|-555555000000001111110333333------|
D|----------------------------------|

Chorus:
e|----------------------------------------------------------------|
B|----------------------------------------------------------------|
G|---------555--------------555------------555-----3333333555555--|
D|-0000333055505555-00003330555055-00003330555055553333333555555--|
A|-0000333033305555-00003330333055-00003330333055551111111333333--|
D|-00003330---05555-00003330---055-00003330---05555---------------|

Bridge:
e|------------------------------------------------------------------|
B|------------------------------------------------------------------|
G|------------------------------------------------------------------|
D|------------------------------------------------------------------|
A|-0-0--------10-12-0-0-------10-9--0-0-------10-12--0-0-------10-9-|
D|-0-0-10-12--------0-0-10-12-------0-0-10-12--------0-0-10-12------|
-
e|-----------------------------------------------------------|
B|-----------------------------------------------------------|
G|-----------------------------------------------------------|x2
D|-----------------------------------------------------------|
A|-8-8-------10-12--10-10--------10-9--0-0--------10-12--0-0-|
D|-8-8-10-12--------10-10--10-12-------0-0--10-12--------0-0-|

e|-3------------------------------3----------|
B|-2------------------------------2----------|
G|-3-----------3333333355555555---3----------|
D|-0-----------3333333355555555---0----------|
A|-0-----------1111111133333333---0----------|
E|-0------------------------------0----------|

Repeat D shape correct amount, you will have to listen to the song, its around 30 times. 
count as fast as it plays.
All the Parts of the song are there, you will need to listen to the song for order of 
i have tabbed. its not to difficult. Ive only been playing for 4 years and i learnt it by ear.
I will put a video up of me playing it on Youtube. My Youtube is: MrChristianGuitarist.

God Bless and Have fun in your worship

| /  slide up
| \  slide down
| h  hammer-on
| p  pull-off
| ~  vibrato
| +  harmonic
| x  Mute note
===============================================================================
Tap to rate this tab
# A B C D E F G H I J K L M N O P Q R S T U V W X Y Z