Song name
# A B C D E F G H I J K L M N O P Q R S T U V W X Y Z

Plastic Tree - Spica tab

I've looked up many tabs for this intro and somehow they all sounded incomplete to me, 
I decided to try it myself. I hope this one sounds exactly the same as the original ^^

E|---------------------------------------------------------------|
B|-4-----4--0-----0------2---0---0---0-----0-0-----0-0-----0-----|
G|-----3--------1----3-----3-------------1-----------------------|
D|---4--------2--------4-------1---1---2-------1-4-----2-----4---|
A|-2-----------------------------------------2-------------------|
E|----------0--------2---3---4---2---0---------------0-----2-----|

E|-----------2---------------------------------------------------|
B|--0---0-2------------------------------------------------------|
G|---------------------------------------------------------------|
D|----4----------------------------------------------------------|
A|--2------------------------------------------------------------|
E|---------------------------------------------------------------|
Tap to rate this tab
# A B C D E F G H I J K L M N O P Q R S T U V W X Y Z