Playjerise - Simple Things tab

-------------------------------------------------------------------------------
			     Simple Things - Playjerise
-------------------------------------------------------------------------------

Email: rubsomedirtonit@hotmail.com

Tuning: standard (capo 2)

intro/outro

e|---------------------------------------------------------------------------|
B|-------7-------9----7------7------9----------------------------------------|
G|---------------------------------------------------------------------------|
D|----9-------9-----------7------7------7------------------------------------|
A|--7------7------7-----7------7------7--------------------------------------|
E|---------------------------------------------------------------------------|

e|----------------------------------4----------------------------------------|
B|-------5------7------------5----------5------------------------------------|
G|---------------------------------------------------------------------------|
D|----6------6------6-----7------7-------------------------------------------|
A|--4------4------4-----7------7------7--------------------------------------|
E|---------------------------------------------------------------------------|


VERSE:

E            A               C#m           A          x2    
i miss the simple things in my life and i want them back...

B
            if we only knew..

Chorus:
       
C#m                 A
that not anyone can change me, what i got

     E              B
and i hold to the simple things i need... 

(chords stay the same as the chorus for the rest of the song until the outro :)

************************************

| /   slide up
| \   slide down
| h   hammer-on
| p   pull-off
| ~   vibrato
| +   harmonic
| x   Mute note
| b   Bend
| pb  Pre-bend
| br  Bend release
| pbr Pre-bend release
| brb Bend release bend

************************************
Tap to rate this tab
 
# A B C D E F G H I J K L M N O P Q R S T U V W X Y Z