Song name
# A B C D E F G H I J K L M N O P Q R S T U V W X Y Z

Plumb - Taken tab

/ \ - slide
~   - let ring out

GUITAR 1'S PARTS:
-----------------
Chords Used:
   G  D/F# Em7 Csus2 Am  Dsus4
e|-3---3----3---3-----0----3------|
B|-3---3----3---3-----1----3------|
G|-0---2----0---0-----2----2------|
D|-0---0----2---2-----2----0------|
A|-2---x----2---3-----0-----------|
E|-3---2----0---------------------|


Verse:
G   D/F#

Em7 Csus2

G   F#/D

Em7 Csus2


Pre Chorus:
Am    Em7  Dsus4

Am    Dsus4


Chorus:
Csus2   G

Em7     Dsus4

Csus2   G

Em7     Dsus4     Csus2  Dsus4 Em7 Dsus4
             
Csus2 Dsus4 Em7 Dsus4


Repeat Verse Pattern

Repeat Pre Chorus

Repeat Chorus

Break:  "Yeahhhh..."  (2x)  G - D/F# - Em7 - Csus2

Repeat Pre Chorus

Repeat Chorus

Ending:  Csus2  (Just keep strumming it)

GUITAR 2'S PARTS:
-----------------
Verse:  (Same as guitar 1)

Chorus:  (Same as guitar 1 until ending)

Ending of Chorus:
e|-7---7---8------10~-------7---7---8------10~-----|
B|---8---8----8----------/8---8---8----8-----------|
G|--------------0------------------------0---------|
D|-------------------------------------------------|
A|-------------------------------------------------|
E|-------------------------------------------------|

2nd Verse:  (Same as guitar 1)

Repeat Chorus

Break:  (Same as guitar 1 until end)

End of Break:  
e|-10-10-10-10-10-10-10-10--15-15-14-14-15-15-17-17~---|
B|--8--8--8--8--8--8--8--8-----------------------------|
G|-----------------------------------------------------|
D|-----------------------------------------------------|
A|-----------------------------------------------------|
E|-----------------------------------------------------|

Repeat Chorus

Ending:  (Repeat lots)  End on:
e|--------------------|--------3~------|
B|-----3~-3-3-3-3-----|--------3~------|
G|--------0-0-0-0-----|--------0~------|
D|---2----2-2-2-2-----|--------2~------|
A|-3------3-3-3-3-----|--------3~------|
E|--------------------|----------------|
Tap to rate this tab
 
# A B C D E F G H I J K L M N O P Q R S T U V W X Y Z