Song name
# A B C D E F G H I J K L M N O P Q R S T U V W X Y Z

Plus 44 - Interlude tab

Song:    Interlude
Band:    All Shall Perish
Album:   The Price Of Existence

My email: dtp_ripster@hotmail.com

Notes: This is my very first tab ever. I am only tabbing the
background rythm for now (Gtr 1). This riff is played through
the whole song.If anyone can figure out what the other guitars
are playing then please help. This song is epic and it touches
my soul xD id really like to get it tabbed out.


Guitar 1:
|-----------------------------------------------------------------|
|-----------------------------------------------------------------|
|-----------------------------------------------------------------|
|--6----------6----------------------6----------6----------9------|        
|----7------7---7-/9--7--6--7------7---7------7---7-/9--7-----7---|
|0--------0----------------------0----------0---------------------|


|-----------------------------------------------------------------|
|-----------------------------------------------------------------|
|-----------------------------------------------------------------|
|----6----------6----------------------6----------6----------9----|
|--7---7------7---7-/9--7--6--7------7---7------7---7--/9--9---9--|
|8---------8----------------------8----------8--------------------|
Tap to rate this tab
# A B C D E F G H I J K L M N O P Q R S T U V W X Y Z