Song name
# A B C D E F G H I J K L M N O P Q R S T U V W X Y Z

Pod - Ghetto tab

intro / chorus -  very light distortion
E ------------------------------------------------------------------|
B -------0-----0----------0----0-----------0------0--------0----0---|
G -----0---2------------0---2----------------2---------------2------|
D ---2-----------2---------------2-------2----------2---2---------2-|
A ------------------------------------3---------------3-------------|
E -----------------3------------------------------------------------|

verse 1 - clean
E -------------------------------------------------------|
B -------------------------------------------------------|
G --5---5---4---4---5---5---4--0-0-0-0-0--0-0-0-0--------|
D --5---5---5---5---5---5---5--2-2-2-2-2--5-5-5-5-5-4----|
A --3---3---3---3---3---3---3--2-2-2-2-2--5-5-5-5-----5--|
E -----------------------------0-0-0-0-0--3-3-3-3--------|

verse 2 - clean
E --------------------------------------------------------------|
B -----------------------------------0-1-0----------------------|
G --5---5---4---4---5---5---4--0-0-0-0-0-0----------------------|
D --5---5---5---5---5---5---5--2-2-2-2-2-2---5-5-4--4---5-4-----|
A --3---3---3---3---3---3---3--2-2-2-2-2-2---5--------5-----5---|
E -----------------------------0-0-0-0-0-0---3----3-------------|

cont. heavy distortion
E ------------------------------------------------------------------|
B ------------------------------------------------------------------|
G ------------------------------------------------------------------|
D -5-5-5-5-5-5-5-5-5-5-5-5-5-5-5-5-5-5-5-5-5-5-5-5-5-5-5-5-5-5-5-5--|
A -3-3-3-3-3-3-3-3-3-3-3-3-3-3-3-3-3-3-3-3-3-3-3-3-3-3-3-3-3-3-3-3--|
E ------------------------------------------------------------------|
pm . . . . . . . . . . . . . . . . . . . . . . . . . . . . . . . .

this part is hard to play for 1 guitar...
E -------------------------------------------------------|
B -------------------------------------------------------|
G ----------------------4-5-4---4-5-4---4-5-4---4-5-4----|
D -2-------2-------2-2--0-0-0-5-0-0-0-5-0-0-0-5-0-0-0-5--|
A -2-------2---x-x-2-2--5-5-5-5-5-5-5-5-5-5-5-3-5-5-5-5--|
E -0---0-0-0---x-x-0-0--3-3-3-3-3-3-3-3-3-3-3-3-3-3-3-3--|
pm     . .


bridge - heavy distortion
E -------------------------------------------------------|
B -------------------------------------------------------|
G -----------------------------------------5/4---5/4-----|
D -2-2-2-2-2--------5-5---2-2-2-2-2------------------5---| 2x
A -2-2-2-2-2--------5-5---2-2-2-2-2--------3/2---3/2-5---|
E -0-0-0-0-0----x-x-3-3---0-0-0-0-0----x-x-----0-----3---|
pm                                             .

E ------------------------------------------------------------------|
B ------------------------------------------------------------------|
G -9-9/10--10--10-10-9-7-9-9/10--10--10-9-7-------------------------|
D ------------------------------------------10-9~~~~~~~~~~~~~~~~~~--| 2x
A ------------------------------------------------------------------|
E ------------------------------------------------------------------|
Tap to rate this tab
 
# A B C D E F G H I J K L M N O P Q R S T U V W X Y Z