Song name
# A B C D E F G H I J K L M N O P Q R S T U V W X Y Z

Pod - On Fire tab

P.O.D.: On Fire

Transcribed by: mysticguitar77

YouTube Channel Username: MysticGuitar77

Date last modified: July 3, 2012

Tuning: D Standard (D,G,C,F,A,D)

Notes: Pretty simple song, the bridge is a bit tricky with the timing, but
other than that, it's a fun song to play.

Riff 1 w/ wah
D|------------------------------------------------|
A|------------------------------------------------|
F|------------------------------------------------|
C|------------------------------------------------|
G|-------5-7/9-7-5-7-----------5-7/9-7-5-7-5-7----|
D|-3-5-7--------------0--3-5-7------------------0-|

Play Riff 1 x2 (let the last note ring out at the end)

Riff 2   "Stop, drop, roll, I'm on fire!"
D|----------------------------------------------------|
A|----------------------------------------------------|
F|--------7--------7--------------11-11-11-11-9-9-9-9-|
C|-9-9-7--7-7-7-5--7---7-7-5-2----x--x--x--x--x-x-x-x-|
G|-9-9-7--5-7-7-5--5---7-7-5-2----9--9--9--9--7-7-7-7-|
D|-7-7-5----5-5-3----0-5-5-3-0------------------------|

D|---------------------------------------------------|
A|---------------------------------------------------|
F|--------7--------7----------------9--9--9--9--9--9-|
C|-9-9-7--7-7-7-5--7---7-7-5/7-2----x--x--x--x--x--x-|
G|-9-9-7--5-7-7-5--5---7-7-5/7-2----7--7--7--7--7--7-|
D|-7-7-5----5-5-3----0-5-5-3/5-0---------------------|

Play Riff 2 x2 (last time let the D chord ring out)
Play Riff 1 x4   "I was born, raged against the machine before..."
Play Riff 2 x2   "Stop, drop, roll, I'm on fire!" (let D chord ring last time)
Play Riff 1 x4   "There's a sucker born every minute..."
Play Riff 2 x2   "Stop, drop, roll, I'm on fire!" (let D chord ring last time)

Riff 3 (tricky timing part, all palm-muted) "Turn the heat up..."
D|-------------------------------------------------|
A|-------------------------------------------------|
F|-------------------------------------------------|
C|-------------------------------------------------|
G|-------------5-5-2-2-----2-2-0-0-----5-5-2-2-----|
D|-3-3-2-2-0-0---------0-0---------0-0---------0-0-|

D|-------------------------------------------------|
A|-------------------------------------------------|
F|-------------------------------------------------|
C|-------------------------------------------------|
G|-------------5-5-2-2-----2-2-0-0-----------------|
D|-3-3-2-2-0-0---------0-0---------0-0-5-5-3-3-2-0-|

Play Riff 3 x2 (palm-muted)
Play Riff 3 x2 (NOT palm-muted and w/ wah)

Riff 4 (transition into final chorus)
D|----------------|
A|----------------|
F|-7-----7--------|
C|-7-7-7-7-7-7----|   "Turn the heat up."
G|-5-7-7-5-7-7----|
D|---5-5---5-5----|

Play Riff 2 x2   "Stop, drop, roll, I'm on fire!" (let D chord ring out final time and fade out)

Enjoy! And feel free to check out my tabs for "Murdered Love" and "Lost In Forever"!




Tap to rate this tab
# A B C D E F G H I J K L M N O P Q R S T U V W X Y Z