Song name
# A B C D E F G H I J K L M N O P Q R S T U V W X Y Z

Pods - Southtown tab

name: Jeff Alan Lawrence Jr.

artist: P.O.D.

SongTitle: Southtown

Tabs:                                                             (4x)
---------------------------------------------------------------
---------------------------------------------------------------
---------------------------------------------------------------
2-2-2-2-------------------------2-2-2-2------------------------
0-0-0-0-0-0-0-0-0-0-0-0-0-0-0-0-0-0-0-0-0-0-0-0-0-0-0-0-0-0-0-0
--------3-3-3-3-3-3-3-3-3-3-3-3---------0-0-0-0-0-0-0-0-0-0-0-0

(w/Dist)                                                    (5x)
-----------------------------------------------------------------
-----------------------------------------------------------------
-----------------------------------------------------------------
7\-3-3-3--3--3-3-3-3-7-7-7-7-0-0-0--0--0-0-0-0-7-7-7-7-----------
7\-3-3-3--3--3-3-3-3-7-7-7-7-0-0-0--0--0-0-0-0-7-7-7-7-----------
7\-3-3-3--3--3-3-3-3-7-7-7-7-0-0-0--0--0-0-0-0-7-7-7-7-----------

-----------------------------------------------------------------
--------6------5-------------------------------------------------
--------x------x-------------------------------------------------
--------3------2-------------------------------------------------
-----------------------------------------------------------------
0----------------------------------------------------------------

Chorus
(w/dist)
------------------------------------------------------------| 
----------8-8-8-8--------------8-8-8-8--------------5-5-5-5-|
----------x-x-x-x--------------x-x-x-x--------------x-x-x-x-|
3----3----5-5-5-5----3----3----5-5-5-5----0----0----2-2-2-2-|
3----3---------------3----3---------------0----0------------|
3----3---------------3----3---------------0----0------------|

-----------------
----------5-5-5-5
----------x-x-x-x
0----0----2-2-2-2
0----0-----------
0----0-----------

--------------------------                                      
-----5----6---------5----6
-----x----x---------x----x
-----2----3---------2----3
--------------------------
0--------------0----------

Any Questions? E-mail me at jeffyman86@yahoo.com
------------------------
------------------------
------------------------
0--2--3--0--2--3--x-x--x
0--2--3--0--2--3--x-x--x
0--2--3--0--2--3--x-x--x


 
Tap to rate this tab
 
# A B C D E F G H I J K L M N O P Q R S T U V W X Y Z