Song name
# A B C D E F G H I J K L M N O P Q R S T U V W X Y Z

Pogues - Fiesta tab

============================
The Pogues - Fiesta (intro)
============================
e|--------------------------------------|
B|--------------------------------------|
G|------------7-9-7----7-9-7------------|
D|-5-7/9-7-9--------7--------7--7-9-7-5-|
A|--------------------------------------|
E|--------------------------------------|


e|----------------------------------------------|
B|----------------------------------------------|
G|------------7-9-7-12--14-12-11-9-7------------|
D|-5-7/9-7-9-------------------------10-9-5-7-5-|
A|----------------------------------------------|
E|----------------------------------------------|


===========================
Tabbed by KingBollock
===========================
Tap to rate this tab
# A B C D E F G H I J K L M N O P Q R S T U V W X Y Z