Song name
# A B C D E F G H I J K L M N O P Q R S T U V W X Y Z

Pohlmann - Wenn Jetzt Sommer Waer tab

----------------------------------------------------------------------------
		     WENN JETZT SOMMER WÄR' - Pohlmann
----------------------------------------------------------------------------
Akkorde und Text: Anonym
Tabulatoren: RalfE

Akkorde:
========

Dm7: X57565
C:   X35553
G:   355433 und 35X437 (während Refrain)
Am7: 575555 und 575558 (während Refrain)
Am:  577555
F:   133211

Anschlag:
=========
\\ / /\/
entspricht einem Takt
(es gibt natürlich Ausnahmen, vorallem beim Refrain)
\ nach unten (zur hohen E-Saite)
/ nach oben (zur tiefen E-Saite)

Song:
=====

Dm7 / C / G / Am7   [2X]
Wenn jetzt Sommer wär', wär' ich hinterher 
Mir 'nen Shirt anzuziehen und dann ab ans Meer.
Und der Winter hier läge hinter mir,
Ich hätt'n Eis auf der Zunge und würd' nich' mehr frier'n 


Dm7 / G / C / G / Am7   [2X]
Und wenn bei Dir jetzt g'rade Sommer ist,
Und Du zu Hause sitzt und nich' raus gehst,
Weil Du mal wieder vor'm TV klebst 


Dm7 / G / C / G / Am   [2X]
Dann denke daran, wenn der Tag Dich verliert,
oooh oooh, dass sich das Wetter ändern wird


Dm7 / G / C / G / Am7   [4X]
Wenn jetzt Sommer wär'...


e|-----------------7-------8--|
h|---6-------5----------------|
g|----------------------------|
d|----------------------------|
a|---------------5---5/7-7----|
e|-5---5\3-3---3/-------------|


Dm7 / C / G / Am7   [2X]
Wenn jetzt Sommer wär' in meiner Heimatstadt,
Dann würd' ich raus aus'm Hof und dann ab auf's Rad.
In die Batze fahr'n und vom Dreier spring',
Und nachts auf der Strasse Jack Johnson sing'


Dm7 / G / C / G / Am7   [2X]
Und wenn bei Dir jetzt g'rade Sommer ist,
Und Du zu Hause sitzt und nich' raus gehst,
Weil Du mal wieder vor'm TV klebst 


Dm7 / G / C / G / Am   [2X]
Dann denke daran, wenn der Tag Dich verliert,
oooh oooh, dass sich das Wetter ändern wird


Dm7 / G / C / G / Am7   [4X]
Wenn jetzt Sommer wär'... 


   Dm7             G
e|-------------------------------------------------------|
h|-----6---8---6-----------12----12----------------------|
g|---5---5---5---5------12----12----12----12h14p12-------|
d|-------------------------------------------------12----|
a|-5---------------5/10-------------------------------10-|
e|-------------------------------------------------------|
                                             Und weil bei

  Dm7              G
e|------------------------------------------------|
h|-----6---8---6-----------12----12---------------|
g|---5---5---5---5------12----12----12------------|
d|------------------------------------------------|
a|-5---------------5/10----------------10h12-10\5-|
e|------------------------------------------------|
   mir         jetzt g'rade Winter ist,

   Dm7             G
e|---------------------------------------------------------------|
h|-----6---8---6-----------12------------------------------------|
g|---5---5---5---5------12----12---12h14p12----12----------------|
d|------------------------------------------12----12h14p12-------|
a|-5---------------5/10------------------------------------12-10-|
e|---------------------------------------------------------------|
      und ich den Sommer so vermiss,                    send ich

   Dm7             G                         Am        G        F
e|---------------------------------------------------------------------|
h|-----6---8---6-----------12----12----12----------13-------12------10-|
g|---5---5---5---5------12----12----12----12-------14-------12------10-|
d|-------------------------------------------------14-------12------10-|
a|-5---------------5/10----------------------10/12----12\10----10\8----|
e|---------------------------------------------------------------------|
   Grüsse          aus dem Winter            an   all  die Sommerkinder


Dm7 / G / C / G / Am7   [4X]
Wenn jetzt Sommer wär'...
Dann würd' ich ab ans Meer




| /  slide up
| \  slide down
| h  hammer-on
| p  pull-off
| ~  vibrato
| +  harmonic
| x  Mute note
===========================================================================
Tap to rate this tab
# A B C D E F G H I J K L M N O P Q R S T U V W X Y Z