Guitaretab - guitar tabs
Song name
# A B C D E F G H I J K L M N O P Q R S T U V W X Y Z

Poison - Fallen Angel tab

POISON - fallen angel
del album "open up and say..ahhh" 1988


Parte con una quinta de G en la 3 cuerda
seguido de un C y luego D, en esa misma cuerda.
Escucha la cancion y guiate por el ritmo,
es clave que suene el cambio de nota en el
primer acorde, de G a F# en la 2 cuerda,
como sale graficado abajo.


   Intro

  e------------------------------------|
  B-------8-----7-----8-----7-----8----|
  G---77--7-7-7-7-7-7-7-7-7-7-7-7-7-7--|
  D---55--5-5-5-5-5-5-5-5-5-5-5-5-5-5--|
  A------------------------------------|
  E------------------------------------|
                                         x4

  e------------------------------------|
  B--5--5--5--7--7-87------------------|
  G--5xx5xx5--7xx7-77------------------|
  D--5xx5xx5--7xx7-55------------------|
  A------------------------------------|
  E------------------------------------|

   Estrofa

  e------------------------------------|
  B---------8---8-7-----5xx55--7xx787--|
  G--7-----77-7-7-7-7---5xx55--7xx777--|  x4
  D--5-----55-5-5-5-5---5xx55--7xx755--|
  A------------------------------------|
  E------------------------------------|

   Pre coro: E-D-C-E-D


   Coro

  e------------------------------------|
  B-------8-----7-----8-----7-----8----|
  G---77--7-7-7-7-7-7-7-7-7-7-7-7-7-7--|
  D---55--5-5-5-5-5-5-5-5-5-5-5-5-5-5--|
  A------------------------------------|
  E------------------------------------|
                                         x2

  e----------------------------------------|
  B--5--5--5--7--7-87-------------17/22 ---| deslizamiento
  G--5xx5xx5--7xx7-77----------------------|
  D--5xx5xx5--7xx7-55-----5----------------|
  A-----------------------5----------------|
  E-----------------------3----------------|


   Estrofa

  e------------------------------------|
  B---------8---8-7-----5xx55--7xx787--|
  G--7-----77-7-7-7-7---5xx55--7xx777--|  x4
  D--5-----55-5-5-5-5---5xx55--7xx755--|
  A------------------------------------|
  E------------------------------------|


   Pre Coro: E-D-C-E-D


   Coro

[ Tab from: http://www.guitaretab.com/p/poison/127701.html ]
  e------------------------------------|
  B-------8-----7-----8-----7-----8----|
  G---77--7-7-7-7-7-7-7-7-7-7-7-7-7-7--|
  D---55--5-5-5-5-5-5-5-5-5-5-5-5-5-5--|
  A------------------------------------|
  E------------------------------------|
                                         x2

  e------------------------------------|
  B--5--5--5--7--7-87------------------|
  G--5xx5xx5--7xx7-77------------------|
  D--5xx5xx5--7xx7-55------------------|
  A------------------------------------|
  E------------------------------------|


  Pre Solo: E-D-C-D-E


  Acordes sobre solo: E-D-C-D
                      E-D-C-D-G

   Intro


  e------------------------------------|
  B-------8-----7-----8-----7-----8----|
  G---77--7-7-7-7-7-7-7-7-7-7-7-7-7-7--|
  D---55--5-5-5-5-5-5-5-5-5-5-5-5-5-5--|
  A------------------------------------|
  E------------------------------------|
                                         x2

  e------------------------------------|
  B--5--5--5--7--7-87------------------|
  G--5xx5xx5--7xx7-77------------------|
  D--5xx5xx5--7xx7-55------------------|
  A------------------------------------|
  E------------------------------------|


   Coro


  e------------------------------------|
  B-------8-----7-----8-----7-----8----|
  G---77--7-7-7-7-7-7-7-7-7-7-7-7-7-7--|
  D---55--5-5-5-5-5-5-5-5-5-5-5-5-5-5--|
  A------------------------------------|
  E------------------------------------|
                                         x4

  e------------------------------------|
  B--5--5--5--7--7-87------------------|
  G--5xx5xx5--7xx7-77------------------|
  D--5xx5xx5--7xx7-55------------------|
  A------------------------------------|
  E------------------------------------|

   Fade Out


  Try to get the most similar sound, get an overall idea from
  the chords i put and then you'll find the sound!
  its a beautiful song... In Chile we keep Rock & Roll alive man!
  Any questions or whatever write to thefourhorsemen84@yahoo.com

  pd: If i'm wrong, sorry, it's my first tab.
      09/11/05
Related for Fallen Angel tab