Song name
# A B C D E F G H I J K L M N O P Q R S T U V W X Y Z

Poison - Squeeze Box tab

Song: Squeeze Box
Band: Poison
Album: Hollyweird
Tab By: Poison dude
Tune Down 1/2 Step
Chords Used: (G5-355xxx)
             (C5-x355xx)
             (D5-x577xx)
             ( G-320033)
Intro:
e|---------------------------------------------------------|
B|---------------------------------------------------------|
G|---------------------------------------------------------|
D|5x3-5-05x3-5---------------------------------------------|
A|5x3-5-05x3-5-(x4)----------------------------------------|
E|3x1-3-03x1-3---------------------------------------------|

Verse:
e|---------------------------------------------------------|
B|---------------------------------------------------------|
G|---------------------------------------------------------|
D|55555-(x4)-----------------------------------------------|
A|55555----------------------------------------------------|
E|33333----------------------------------------------------|

Mamas got a squeeze box she wears on her chest, and when daddy comes home he never 
gets no rest

Chorus: (Listen to song for strum pattern)

(D5)-Cause shes playing all night
(C5)-And the musics alright
(D5)-Mamas got a squeeze box 
(C5)-Daddy never sleeps at night

Pre-Verse:
e|---------------------------------------------------------|
B|---------------------------------------------------------|
G|---------------------------------------------------------|
D|xx5xx5---5x5-3-------------------------------------------|
A|xx5xx5---5x5-3-------------------------------------------|
E|xx3xx3---3x3-1-------------------------------------------|

Verse 2: (repeat same pattern as verse 1)

Chorus: (repeat same pattern as chorus 1)

(G)-She goes in and out and in and out and in and out and in and out
Repeat Chorus
        (G5)                     (G5)
She goes squeeze me, come on and squeeze me
            
(D5) Come on and tease me like you do 
(C5) Im so in love with you
(D5) Mamas got a squeeze box 
(C5) Daddy never sleeps at night


Rhythm During solo: (palm mute chords)
Listen for timing
G5
D5
C5
D5C5

Repeat in and out

Repeat chorus x2

Ill try to figure out CCs solo later. Stay tuned for more Hollyweird Tabs!!!
===============================================================================
Tap to rate this tab
# A B C D E F G H I J K L M N O P Q R S T U V W X Y Z