Song name
# A B C D E F G H I J K L M N O P Q R S T U V W X Y Z

Pokemon Games - Lavender Town tab

---------------------------------------------------

This is my first tab so there may be some mistakes.

---------------------------------------------------

E|-----------------------------------|
B|-----------------------------------|
G|-----------------------------------|
D|--------------------------8--------|
A|--10--10--7--7--10--9--7-----4--4--|
E|-----------------------------------|



E|----------------------------------|
B|----------------------------------|
G|----------------------------------|
D|----------------9--8--5--8--9--9--|
A|--10--10--9--9--------------------|
E|----------------------------------|

---------------------------------------------------
Tap to rate this tab
# A B C D E F G H I J K L M N O P Q R S T U V W X Y Z