Song name
# A B C D E F G H I J K L M N O P Q R S T U V W X Y Z

Pooh - Parsifal tab

-------------------------------------------------------------------------------
                             PARSIFAL - POOH
-------------------------------------------------------------------------------
Tabbed by: Cornelius96
E-mail: dmoretto54@gmail.com

Tuning: EADGBe

Solo 1, first part:

e|----------------------------------------------------------------------------------------------------|
B|-13b15 13b17----------------------------------------------------------------------------------------|
G|----------------10b12 10pb-10br 7---------------------------------10----10-12-10-12-12b14-12b14-----|
D|----------------------------------7-------------10----10-12p10-------12-----------------------------|
A|---------------------------------------10h11h12----12----------12-----------------------------------|
E|----------------------------------------------------------------------------------------------------|

e|----------------------------------------------------------------------------------------------------|
B|----------11----13b15---------15p13-----------------------------------------------------------------|
G|-14p10-------10---------12/14-------14-14-12----------12p10----------10b----12b14-12br--------------|
D|-------12------------------------------------15-12h15-------12-10-12-----12------------12\0---------|
A|----------------------------------------------------------------------------------------------------|
E|----------------------------------------------------------------------------------------------------|

This is what I've done today, remember to check out in the following days to see the 
finished tab

************************************

| /   slide up
| \   slide down
| h   hammer-on
| p   pull-off
| ~   vibrato
| +   harmonic
| x   Mute note
| b   Bend
| pb  Pre-bend
| br  Bend release
| pbr Pre-bend release
| brb Bend release bend

************************************
Tap to rate this tab
# A B C D E F G H I J K L M N O P Q R S T U V W X Y Z