Song name
# A B C D E F G H I J K L M N O P Q R S T U V W X Y Z

Popa Chubby - Looking Back tab

	Looking Back by Popa Chubby
	          Key of A#

|--6-9b-9~~--6h9p6---6-------9-11-11b-9------9b-|
|-6----------------8--/11--11----(11)--11-11----|
|-----------------------------------------------|
|-----------------------------------------------|
|-----------------------------------------------|
|-----------------------------------------------|

|-------------------------------------------|
|-----9--9-------9--9------9----8-8-6-------|
|-/10-10-10--/10-10-10-/10-10-/8-8--6h7p6---|
|-------------------------------------------|
|-------------------------------------------|
|-------------------------------------------|

|----6--6-9-6-------------------------8-8---|
|---6-9b-6---6-8-6--------8-6---------------|
|-8b-----------8-6h7p6h7--8-6h7p6--6-/8-8---|
|---------------------------------8---------|
|-------------------------------------------|
|-------------------------------------------|

|---------------------------------------6-8-8-|
|-6h8-6h8-6h8p6--6--------6---8-----6h8-6-8-8-|
|-6---6---6----8--8-6h7---6h7-8-6h7-------8-8-|
|----------------------7----------------------|
|---------------------------------------------|
|---------------------------------------------|

|--------------------------6-6--------------|
|-6-6---8-6------6---8----------------------|
|-7-6h7-8-6h7----6h7-8-6h7------------------|
|------------8-5----------------------------|
|---------------8---------------------------|
|-------------------------------------------|

|---------------6----5---4----6--6~~--------|
|-6---8-6-----------------------------------|
|-6h7-8-6h7--/(6)\(5)-\(4)-/-6--------------|
|----------8--------------------------------|
|-------------------------------------------|
|-------------------------------------------|

|--11b-11b-9---9b--11b-9--------------------|
|-----------11------------------------------|
|-/---------------------10-10---------------|
|-------------------------------------------|
|-------------------------------------------|
|-------------------------------------------|


|-------------------------------------------|
|----11--11-13-13b-13p11---11---------------|
|-/12--12----------------12-----------------|
|-------------------------------------------|
|-------------------------------------------|
|-------------------------------------------|

|--13-12-11---------------------------------|
|-----------14-11-14-11h14p11---11-11\------|
|----------------------------12-------------|
|-------------------------------------------|
|-------------------------------------------|
|-------------------------------------------|

|---------------8-8---8-8-------------------|
|-6---8--8-6----8-8---8-8-------------------|
|-6h7-8--8-6h7--8-8---8-8-------------------|
|-------------------------------------------|
|-------------------------------------------|
|-------------------------------------------|


Tap to rate this tab
# A B C D E F G H I J K L M N O P Q R S T U V W X Y Z