Song name
# A B C D E F G H I J K L M N O P Q R S T U V W X Y Z

Porcupine Tree - Halo tab

Porcupine Tree - Halo

I'm sure there are a few mistakes but here is the basic
gist of the song, feel free to correct and comment.  Cheers!


Intro/Verse

e--------------------------------------------------------|
B--------------------------------------------------------|
G--------------------------------------------------------|
D--------------------------------------------------------|
A------------------------------------------------5-6-----|
E--0-0--0-0--0-0--5-3-5-3-0---0-0--0-0--0-0--3-5------3--|

e--------------------------------------------------------|
B--------------------------------------------------------|
G--------------------------------------------------------|
D--------------------------------------------------------|
A---------------------------------------------------4----|
E--0-0--0-0--0-0--5-3-5-3-0---0-0--0-0--0-0--3-5--0------|


Pre-Chorus
Tremolo Picking

e--------------------------------------------------------|
B--------------------------------------------------------|
G--9---12--8------7--------------------------------------|
D--------------------------------------------------------|   x 2
A--------------------------------------------------------|
E--------------------------------------------------------|


Chorus
Listen to the track for the rhythym

A G E5


Bridge

e--------------------------------------------------------|
B--------------------------------------------------------|
G--------------------------------------------------------|
D-------------------5-7----------------------------------|   x 4
A--5-7----5-7---5-7--------5-7----5-7----5-7-------------|
E------0------0----------------0------0------6-5---------|

e--------------------------------------------------------|
B--------------------------------------------------------|
G--------------------------------------------------------|
D--------------------------------------------------------|   x 2
A-----------------------------------------------5-4------|
E-3p0-0--3p0-0--3p0--6-5-----3p0-0--3p0-0--3p0-----------|

e--------------------------------------------------------|
B--------------------------------------------------------|
G--------------------------------------------------------|
D-------------------5-7----------------------------------|   x 4
A--5-7----5-7---5-7--------5-7----5-7----5-7-------------|
E------0------0----------------0------0------6-5---------|

Solo is played over this section:

e--------------------------------------------------------|
B--------------------------------------------------------|
G--------------------------------------------------------|
D--------------------------------------------------------|   x 4
A-----------------------------------------------5-4------|
E-3p0-0--3p0-0--3p0--6-5-----3p0-0--3p0-0--3p0-----------|


What is roughly played on the piano

e--------------------------------------------------------|
B--------------------------------------------------------|
G--------------------------7-9---------------------------|
D-------------4-----4-5-7--------------------------------|
A-------4-5-7-----7--------------------------------------|
E--5-7---------------------------------------------------|


Outro
Listen for the rhythym

A G E5
Tap to rate this tab
# A B C D E F G H I J K L M N O P Q R S T U V W X Y Z