Song name
# A B C D E F G H I J K L M N O P Q R S T U V W X Y Z

Porcupine Tree - Way Out Of Here tab

Guitar first comes in. Clean tone. Song is in 6/8 
 
I just changed this tab to make it fit Drop D. 
 
   E   E    E    Q.         E   E    E    Q.         E   E    E    Q.       
------10----------------|------10----------------|------10----------------| 
-----------(8)----------|-----------(8)----------|-----------(8)----------| 
-----------------8------|-----------------8------|-----------------8------| 
--10--------------------|--10--------------------|--10--------------------| 
------------------------|------------------------|------------------------| 
------------------------|------------------------|------------------------| 
 
 
   E   E    E    Q.         E   E    E    Q.         E   E    E    Q.       
------10----------------|------10----------------|------10----------------| 
-----------(8)----------|-----------(8)----------|-----------(8)----------| 
-----------------8------|----------------10------|----------------10------| 
--10--------------------|---8--------------------|--8--------------------| 
------------------------|------------------------|------------------------| 
------------------------|------------------------|------------------------| 
 
 
   E   E    E    Q.         E   E    E    Q.         E   E    E    Q.       
------10----------------|------10----------------|------13----------------| 
-----------(8)----------|-----------(8)----------|------------------------| 
----------------10------|----------------10------|----------(12)--13------| 
---8--------------------|---8--------------------|------------------------| 
------------------------|------------------------|--11--------------------| 
------------------------|------------------------|------------------------| 
 
 
   E   E    E    Q.         E   E    E    Q.         E   E    E    Q.       
------13----------------|------13----------------|------13----------------| 
------------------------|------------------------|------------------------| 
----------(12)--13------|----------(12)--13------|----------(12)--13------| 
------------------------|------------------------|------------------------| 
--11--------------------|--11--------------------|--11--------------------| 
------------------------|------------------------|------------------------| 
 
 
   E   E    E    Q.         E   E    E    Q.         E   E    E    Q.       
------13----------------|------13----------------|------13----------------| 
------------------------|------------------------|------------------------| 
----------(12)--13------|----------(12)--13------|----------(12)--13------| 
------------------------|------------------------|------------------------| 
--10--------------------|--10--------------------|--10--------------------| 
------------------------|------------------------|------------------------| 
 
 
   E   E    E    Q.          
------13----------------| 
----------------13------| 
----------(12)----------| 
------------------------| 
--10--------------------| 
------------------------| 
 
Chorus 
 
   Q.     Q.       
|----------------| 
|----------------| 
|--5------5------| 
|--5------5------| 
|--3------3------| 
|----------------| 
 
 
  Q.     Q.        Q.     Q.        Q.     Q.         
----------------|----------------|----------------| 
----------------|----------------|----------------| 
----------------|----------------|----------------| 
--6------6------|--3------3------|--1------6------| 
--6------6------|--3------3------|--1------6------| 
--6------6------|--3------3------|--1------6------| 
 
Verse. 
 
   E  H        E    
|-----------------| 
|-----3--------L--| 
|-----------------| 
|-----------------| 
|--3--L--------L--| 
|-----------------| 
 
 
  H.              E  H        E     H.              E  H        E    
---------------|-----------------|---------------|-----------------| 
--L------------|-----3--------L--|--L------------|-----3--------L--| 
---------------|-----------------|---------------|-----------------| 
---------------|-----------------|---------------|-----------------| 
--L------------|--3--L--------L--|--L------------|--1--L--------L--| 
---------------|-----------------|---------------|-----------------| 
 
 
  H.              E  H        E     H.              E  H        E    
---------------|-----------------|---------------|-----------------| 
--L------------|-----3--------L--|--L------------|-----6--------L--| 
---------------|-----------------|---------------|-----------------| 
---------------|-----------------|---------------|-----------------| 
--L------------|--1--L--------L--|--L------------|-----------------| 
---------------|-----------------|---------------|--6--L--------L--| 
 
 
  H.              E  H        E     H.              E  H        E    
---------------|-----------------|---------------|-----------------| 
--L------------|-----6--------L--|--L------------|-----6--------L--| 
---------------|-----------------|---------------|-----------------| 
---------------|-----------------|---------------|-----------------| 
---------------|-----------------|---------------|-----------------| 
--L------------|--6--L--------L--|--L------------|--5--L--------L--| 
 
 
  H.              E  H        E     H.               
---------------|-----------------|---------------| 
--L------------|-----6--------L--|--L------------| 
---------------|-----------------|---------------| 
---------------|-----------------|---------------| 
---------------|-----------------|---------------| 
--L------------|--5--L--------L--|--L------------| 
 
Repeat chorus again. 
 
Fripp's soundscapes. 
 
   E  E  E  E  E  E    
|-----1-----------3--| 
|--3-----------3-----| 
|--------2--3--------| 
|--------------------| 
|--------------------| 
|--------------------| 
 
 
  E  E  E  E  E  E     E  E  E  E  E  E     E  E  E  E  E  E    
-----1-----------3--|-----1-----------3--|-----1-----------3--| 
--3-----------3-----|--3-----------3-----|--3-----------3-----| 
--------2--3--------|--------2--3--------|--------2--3--------| 
--------------------|--------------------|--------------------| 
--------------------|--------------------|--------------------| 
--------------------|--------------------|--------------------| 
 
 
  E  E  E  E  E  E     E  E  E  E  E  E    
-----1-----------3--|-----1--3--0--------| 
--3-----------3-----|--2-----------2-----| 
--------2--3--------|-----------------2--| 
--------------------|--------------------| 
--------------------|--------------------| 
--------------------|--------------------| 
 
Heavy riff 
 
   E.  E  S E  E  E    
|--------------------| 
|--------------------| 
|--------------------| 
|--1--------1--------| 
|--1--------1--------| 
|--1---0--0-1--0--0--| 
 
 
      PM     PM PM      
  E.  E  S S E  E  S  
---------------------| 
---------------------| 
---------------------| 
--1--------1---------| 
--1--------1---------| 
--1---0--0-1-0--0--0-| 
 
Chorus again 
 
Repeat heavy riff again, then they play it without the palm muting. 
 
The soundscapes repeat again at the end.

Guitar II 
 
This is played when the drums first come in. I think it's a 2nd guitar over the first one. 
 
  Q    E  Q    E     Q    E  Q    E    
------------------|------------------| 
------------------|------------------| 
-------0-------0--|-------0-------0--| 
----------1-------|----------1-------| 
--3---------------|--3---------------| 
------------------|------------------| 
 
 
  Q    E  Q    E     Q    E  Q    E     Q    E  Q    E     Q    E  Q    E    
------------------|------------------|------------------|------------------| 
------------------|------------------|------------------|------------------| 
-------0-------0--|-------0-------0--|-------0-------0--|-------0-------0--| 
----------1-------|----------1-------|----------3-------|----------3-------| 
--3---------------|--3---------------|--1---------------|--1---------------| 
------------------|------------------|------------------|------------------| 
 
 
  Q    E  Q    E     Q    E  Q    E     Q    E  Q    E     Q    E   Q    E    
------------------|------------------|------------------|------------------| 
------------------|------------------|------------------|------------------| 
-------0-------0--|-------0-------0--|-------0-------0--|-------0-------0--| 
----------3-------|----------3-------|----------6-------|----------6-------| 
--1---------------|--1---------------|------------------|------------------| 
------------------|------------------|--6---------------|--6---------------| 
 
 
  Q    E  Q    E      Q    E  Q    E     Q    E  Q    E     Q    E  Q    E    
-------------------|------------------|-----------------|------------------|
-------------------|------------------|-----------------|------------------|
-------0-------0---|-------0-------0--|-------0------0--|-------0-------0--|
----------6--------|----------6-------|----------6------|----------6-------|
-------------------|------------------|-----------------|------------------|
--6----------------|--6---------------|--5--------------|--5---------------|

 
 
  Q    E  Q    E     Q    E  Q    E                                        
------------------|------------------| 
------------------|------------------| 
-------0-------0--|-------0-------0--| 
----------6-------|----------6-------| 
------------------|------------------| 
--5---------------|--5---------------|

Guitar Solo 
 
   E.   E.  E.  E.      E.    E.   E.   E.      E.   E.  E.  E.    
--5g8---8---8---8---|--8g10---10---10---10---|--10---------------| 
--------------------|------------------------|-------8---8---8---| 
--------------------|------------------------|-------------------| 
--------------------|------------------------|-------------------| 
--------------------|------------------------|-------------------| 
--------------------|------------------------|-------------------| 
 
 
  E.  E.   E.    E.      S   S  S  S   S   S  S   S  S   S  S   S   
----------------------|--10h-11----10h-11h-13-11p-10---------------| 
--8---8---8g11---11---|---------13-------------------13p-11--------| 
----------------------|-------------------------------------12p-10-| 
----------------------|--------------------------------------------| 
----------------------|--------------------------------------------| 
----------------------|--------------------------------------------| 
 
 
                             |--3--|                                  
   E   E   E   Q     E       S  S  S S  S  S  S  S  S  S  S  S  S   
-------------------------|--------------------8--------------------| 
-------------------------|--9h-11p-9-8-11p-9-----11-10-8-----------| 
------10--12--10~----L\--|-------------------------------10--------| 
--13---------------------|----------------------------------12-10--| 
-------------------------|-----------------------------------------| 
-------------------------|-----------------------------------------| 
 
 
  E   E   E   Q     E        E.  E  S E.  E  S    E.  E  S E.  E  S   
------------------------|----------------------|--------------------| 
------------------------|----------------------|--------------------| 
------------------------|-------------5---5--5-|-----------6---6--6-| 
--8--10--12--10~----L\--|--3g5---5--5----------|--6---6--6----------| 
------------------------|----------------------|--------------------| 
------------------------|----------------------|--------------------| 
 
 
  E.  E.  E.  E  S     E   E  E  E  E  E      S S  S S  S S E  E  E    
--------------------|------------8---------|-------------------------| 
--------------------|--8--11--8-----8------|---------7p-6---6--------| 
--5---5---5---5--L/-|------------------8\--|----5h-8------8----8-----| 
--------------------|----------------------|--5-------------------5--| 
--------------------|----------------------|-------------------------| 
--------------------|----------------------|-------------------------| 
 
  S S  S S  S S E  E  E   
-------------------------|
---------7p-6---6--------|
----5h-8------8----8-----|
--5-------------------5--|
-------------------------|
-------------------------|

     E.  E.  S  E  E.     S E  E  S   S  E   E   S  
|----------------------|---------------------------|
|----------------------|---------------------------|
|--3g5---5---5S-7--7---|--8-8--8--8S-10-10--10--10-|
|----x---x---x--x--x---|--x-x--x--x---x--x---x---x-|
|--1g3---3---3S-5--5---|--6-6--6--6S--8--8---8---8-|
|----------------------|---------------------------|

  E.  E  S E  E  E     S  E  E  S E  E  E     S  E  E  S E  E  E   
--------------------|----------------------|----------------------|
--------------------|----------------------|----------------------|
--9---9--9-9--9--9--|--9S-8--8--8-8--8--8--|--8S-7--7--7-7--7--7--|
--x---x--x-x--x--x--|--x--x--x--x-x--x--x--|--x--x--x--x-x--x--x--|
--7---7--7-7--7--7--|--7S-6--6--6-6--6--6--|--6S-5--5--5-5--5--5--|
--------------------|----------------------|----------------------|


  S  E  E  S S  S S S S S    E.  E  S E  E  E     S  E  E  S E  E  E   
--------------------------|--------------------|----------------------|
--------------------------|--------------------|----------------------|
--7S-5--5--5-5S-3-3-3-3-3-|--9---9--9-9--9--9--|--9S-8--8--8-8--8--8--|
--x--x--x--x-x--x-x-x-x-x-|--x---x--x-x--x--x--|--x--x--x--x-x--x--x--|
--5S-3--3--3-3S-1-1-1-1-1-|--7---7--7-7--7--7--|--7S-6--6--6-6--6--6--|
--------------------------|--------------------|----------------------|


  S  E  E  S E  E  E     S  E  E  S S  S S S S S                                
----------------------|--------------------------|
----------------------|--------------------------|
--8S-7--7--7-7--7--7--|--7S-5--5--5-5S-3-3-3-3-3-|
--x--x--x--x-x--x--x--|--x--x--x--x-x--x-x-x-x-x-|
--6S-5--5--5-5--5--5--|--5S-3--3--3-3S-1-1-1-1-1-|
----------------------|--------------------------|

Enjoy!
 
 
Duration Legend 
--------------- 
W - whole 
H - half 
Q - quarter 
E - 8th 
S - 16th 
T - 32nd 
X - 64th 
. - note dotted 
|-n-|  - n-tuplets 
 
 
Tablature Legend 
---------------- 
L - tied note 
x - dead note 
g - grace note 
(n) - ghost note 
> - accentuded note 
NH - natural harmonic 
AH - artificial harmonic 
TH - tapped harmonic 
SH - semi harmonic 
PH - pitch harmonic 
h - hammer on 
p - pull off 
b - bend 
br - bendRelease 
pb - preBend 
pbr - preBendRelease 
brb - bendReleaseBend 
\n/ - tremolo bar dip 
\n - tremolo bar dive 
-/n - tremolo bar Release up 
/n\ - tremolo bar inverted dip 
/n - tremolo bar return 
-\n - tremolo bar Release down 
S - shift slide 
s - legato slide 
/ -  slide into from below or out of upwards 
\ -  slide into from above or out of downwards 
~ - vibrato 
W - wide vibrato 
tr - trill 
TP - tremolo picking 
T - tapping 
S - slap 
P - pop 
< - fade in 
^ - brush up 
v - brush down
Tap to rate this tab
# A B C D E F G H I J K L M N O P Q R S T U V W X Y Z