Song name
# A B C D E F G H I J K L M N O P Q R S T U V W X Y Z

Porcupine Tree - I Drive The Hearse tab

-----------------------------------------------------------------------------
                                          Artist - Porcupine Tree
                                         *************************
                                         Song - I Drive The Hearse
                                        ***************************
                                            Album - The Incident  
                                           **********************
                                            Tabbed By - Ayreon77
                                           **********************
-----------------------------------------------------------------------------
Tuning = Standard

PH = Pinch Harmonic


02:04
[-----------------s------s------s------------]
[--14-----------14\15--14\15--14\17---14-----]
[----------s-----------------------------14--]
[--------14\16-------------------------------]
[--------------------------------------------]
[--------------------------------------------]


----------------------------------------------------
03:54
[-----------------------|----------------------|-------------s---------]
[------h---s------------|------h---s-----------|-----------10\12-10~~~-]
[--6--4-6-6\7-6---------|--6--4-6-6\7--6-7-9-6-|---h-------------------]
[-x-------------7-------|-x--------------------|-11-12-14--------------]
[-----------------7-9-9-|----------------------|-----------------------]
[-----------------------|----------------------|-----------------------]

                                         s
[--br------------------|-------------|-10\12-10-9-------|-------------------]
[-14---------s---PH-PH-|--h----------|------------10----|---h---12-14-12----]
[----14-14-14\11-11-11-|-6-7-6-------|---------------11-|-11-14----------15-]
[----------------------|-------7-----|------------------|-------------------]
[----------------------|---------7-9-|------------------|-------------------]
[----------------------|-------------|------------------|-------------------]

    s                                  
[-10\12-10-9-------|-------------------]
[------------10----|---h---12-14-12----]
[---------------11-|-11-14----------15-]
[------------------|-------------------]
[------------------|-------------------]
[------------------|-------------------]

    s           p    h                    
[-12\14-12-10-12-10-9-10-9----------------]
[--------------------------10--s----------]
[-----------------------------9\7-6-------]
[-----------------------------------7---7-]
[-------------------------------------9---]
[-----------------------------------------]

    s      p         h  p  s               
[-12\14--12-10-12--10-12-10\9-10-9-------------]
[----------------------------------10----------]
[-------------------------------------9-7--7-9-]
[----------------------------------------------]
[----------------------------------------------]
[----------------------------------------------]


----------------------------------------------------
04:36
vol after solo on i drive the hearse

[-------------------------------s-----s-use slide-]
[--14--15--14------14----14--19-\---19\-----------]
[--------------14----14---------------------------]
[-------------------------------------------------]
[-------------------------------------------------]
[-------------------------------------------------]


----------------------------------------------------
Last solo
05:32
  vol
[--9----p-----p--------7------------|---------------]
[------7-5---7-5---7-5---7----------|---------------]
[------7-6---7-6--------------h-----|--h--7-9-7-6-7-]
[--------------------------7-7-9--9-|-7-9-----------]
[-----------------------------------|---------------]
[-----------------------------------|---------------]


[---p-------p--------h------|-------------|-----------]
[--7-5--7--7-5--7-5-5-7-----|-------7-----|-------7---]
[--7-6-----7-6-----------h--|--h--7---7---|--h--7---9-]
[-----------------------7-9-|-7-9-------9-|-7-9-------]
[---------------------------|-------------|-----------]
[---------------------------|-------------|-----------]


[---h-------p----p--7-----------------------------]
[--5-7--7--7-5--7-5---------------------7---------]
[--6-7-----7-6-----------h----p----h--7---7----h--]
[---------------------7-7-9--9-7--7-9-------9-7-9-]
[-------------------------------------------------]
[-------------------------------------------------]


[--------p---|---h-------h------------------|--------------]
[--7-7--7-5--|--5-7-5---5-7-----------------|--------------]
[------------|--------7-------h---------p---|---h--7-6--h--]
[------------|---------------7-9---9-9-9-7--|--7-9-----7-9-]
[------------|------------------------------|--------------]
[------------|------------------------------|--------------]


[--------p---|-------------------|--------------|--------p---]
[--7-7--7-5--|--7----------------|--------------|--7-7--7-5--]
[------------|-----h---------p---|---h--7-6--h--|------------]
[------------|----7-9---9-9-9-7--|--7-9-----7-9-|------------]
[------------|-------------------|--------------|------------]
[------------|-------------------|--------------|------------]


ENJOY..........
Tap to rate this tab
# A B C D E F G H I J K L M N O P Q R S T U V W X Y Z