Song name
# A B C D E F G H I J K L M N O P Q R S T U V W X Y Z

Porcupine Tree - Great Expectations tab

 Album: The Incident
 Song: Great Expectations
 Tabbed by: Sound Sickness
 
 Standart Tuning  

 ^: Bending
 /: Slide up
 \: Slide down
 ~: Vibrato (sustained note)
 h: Hammer on
 p: Pull off
 PM:Palm mute 

 
 
 VERSE (both are the same)
 
      Dsus2      Bb         Dm           C
 E|-0-0-0-0-0--1-1-1-1-1--1-1-1-1-1--0-0-0-0-0-| x2
 B|-3-3-3-3-3--3-3-3-3-3--3-3-3-3-3--1-1-1-1-1-|
 G|-2-2-2-2-2--3-3-3-3-3--2-2-2-2-2--0-0-0-0-0-|
 D|-0-0-0-0-0--3-3-3-3-3--0-0-0-0-0--2-2-2-2-2-|
 A|----------------------------------3-3-3-3-3-|
 E|--------------------------------------------|

 
 BRIDGE (the same both times)

 Gtr. 1
 E|----------------| x2   
 B|-2--4-5--5--7-8-|
 G|-2--2-2--5--5-5-|
 D|-2--2-2--5--5-5-|
 A|----------------|
 E|----------------|

 Gtr. 2
 E|---------------| X2
 B|-2--4-5--5-7-8-|
 G|---------------|
 D|---------------|
 A|---------------|
 E|---------------|

 Gtr. 1
 E|----------------| x1  
 B|-2--4-5--5--7-8-|
 G|-2--2-2--5--5-5-|
 D|-2--2-2--5--5-5-|
 A|----------------|
 E|----------------|

 Gtr. 2
 E|---------------------| X1
 B|-14--16-17--17-19-20-|
 G|---------------------|
 D|---------------------|
 A|---------------------|
 E|---------------------|

 Gtr. 1
 E|-----------|
 B|-7--8-7-10-|
 G|-7--7-7-7--|
 D|-7--7-7-7--|
 A|-----------|
 E|-----------|

 Gtr. 2
 E|------------|
 B|-7--8-7-10~ |
 G|------------|
 D|------------|
 A|------------|
 E|------------|





Tap to rate this tab
 
# A B C D E F G H I J K L M N O P Q R S T U V W X Y Z