Song name
# A B C D E F G H I J K L M N O P Q R S T U V W X Y Z

Porcupine Tree - Shallow tab

#----------------------------------PLEASE NOTE---------------------------------#
#This file is the author's own work and represents their interpretation of the #
#song. You may only use this file for private study, scholarship, or research. #
#------------------------------------------------------------------------------#

SHALLOW
As recorded by Porcupine Tree
(From the 2005 Album DEADWING)

Transcribed by Erik Alfredsson & Erik Dietrich
	

Words and Music by Steven Wilson

Gtr I (D A D G B E) - 'Overdriven'
Gtr II (D A D G B E) - 'Overdriven 2'
Gtr III (D A D G B E) - 'Acoustic'
Gtr IV (D A D G B E) - 'Muted'

 Intro
  Q=174
  C5     G5    D5    F5G5  D5       C5     G5    D5    F5G5  D5
 4/4
  Gtr II
   H     E E E  E    E E E E H       H     E E E  E    E E E E E E Q
|------------------|--------------|------------------|-----------------|
|------------------|--------------|------------------|-----------------|
|------------------|--------------|------------------|-----------------|
|------------------|-------0------|------------------|-------0-----0---|
|-10\----5---5-(0)-|-3-5---0------|-10\----5---5-(0)-|-3-5---0-----0---|
|-10\----5h6----0--|-3-5---0------|-10\----5h6----0--|-3-5---0---0-0---|


  C5     G5    D5    F5G5  D5       C5     G5    D5    F5G5  D5
   H     E E E  E    E E E E H       H     E E E  E    E E E E E E Q
|------------------|--------------|------------------|----------------|
|------------------|--------------|------------------|----------------|
|------------------|--------------|------------------|----------------|
|------------------|-------0------|------------------|-------0-----0--|
|-10\----5---5-(0)-|-3-5---0------|-10\----5---5-(0)-|-3-5---0-----0--|
|-10\----5h6----0--|-3-5-0-0------|-10\----5h6----0--|-3-5---0---0-0--|


  C5     G5    D5    F5G5  D5       C5     G5    D5    F5G5  D5
  Gtrs I, II
   H     E E E  E    E E E E H       H     E E E  E    E E E E E E Q
|------------------|--------------|------------------|----------------|
|------------------|--------------|------------------|----------------|
|------------------|--------------|------------------|----------------|
|------------------|-------0------|------------------|-------0-----0--|
|-10\----5---5-(0)-|-3-5---0------|-10\----5---5-(0)-|-3-5---0-----0--|
|-10\----5h6----0--|-3-5---0------|-10\----5h6----0--|-3-5---0---0-0--|


  C5     G5    D5    F5G5  D5       C5     G5    D5    F5G5  D5
   H     E E E  E    E E E E H       H     E E E  E    E E E E E E Q
|------------------|--------------|------------------|----------------||
|------------------|--------------|------------------|----------------||
|------------------|--------------|------------------|----------------||
|------------------|-------0------|------------------|-------0-----0--||
|-10\----5---5-(0)-|-3-5---0------|-10\----5---5-(0)-|-3-5---0-----0--||
|-10\----5h6----0--|-3-5-0-0------|-10\----5h6----0--|-3-5---0---0-0--||


   Verse
    $
    C5     G5    D5    F5G5  D5       C5     G5    D5    F5G5  D5
     H     E E E  E    E E E E H       H     E E E  E    E E E E E E Q
||-------------------|--------------|------------------|-----------------|
||o------------------|--------------|------------------|-----------------|
||-------------------|--------------|------------------|-----------------|
||-------------------|-------0------|------------------|-------0-----0---|
||o-10\----5---5-(0)-|-3-5---0------|-10\----5---5-(0)-|-3-5---0-----0---|
||--10\----5h6----0--|-3-5---0------|-10\----5h6----0--|-3-5---0---0-0---|


                                                              To Coda
  C5     G5    D5    F5G5  D5       C5     G5    D5    F5G5  D5
   H     E E E  E    E E E E H       H     E E E  E    E E E E E E Q
|------------------|--------------|------------------|-----------------||
|------------------|--------------|------------------|----------------o||
|------------------|--------------|------------------|-----------------||
|------------------|-------0------|------------------|-------0-----0---||
|-10\----5---5-(0)-|-3-5---0------|-10\----5---5-(0)-|-3-5---0-----0--o||
|-10\----5h6----0--|-3-5-0-0------|-10\----5h6----0--|-3-5---0---0-0---||


 Pre-Chorus
  Csus2                                Dsus2                     Fsus2
  Gtr III
  Q.   E +Q   Q    +E  Q.   Q  E E   E Q  E Q.   E   +E  Q  E Q   E  E
|-3----3-(3)--3--|-(3)-3----3--3-3-|---5--5-5----5-|-(5)-5--5-5---8--8-|
|-3----3-(3)--3--|-(3)-3----3--3-3-|---5--5-5----5-|-(5)-5--5-5---8--8-|
|-5----5-(5)--5--|-(5)-5----5--5-5-|-5s7--7-7----7-|-(7)-7--7-7--10-10-|
|-5----5-(5)--5--|-(5)-5----5--5-5-|-5s7--7-7----7-|-(7)-7--7-7--10-10-|
|-3----3-(3)--3--|-(3)-3----3--3-3-|-3s5--5-5----5-|-(5)-5--5-5---8--8-|
|----------------|-----------------|---------------|-------------------|


                 Gsus2
   Q.    E  +Q    Q     +E   E  E  E  Q   E  E
|--8-----8--(8)--10--|-(10)-10-10-10-10--10-10-|
|--8-----8--(8)--10--|-(10)-10-10-10-10--10-10-|
|-10----10-(10)--12--|-(12)-12-12-12-12--12-12-|
|-10----10-(10)--12--|-(12)-12-12-12-12--12-12-|
|--8-----8--(8)--10--|-(10)-10-10-10-10--10-10-|
|--------------------|-------------------------|


  Dsus2                        Csus2
  Q  E E Q  E E   +E  E E E Q  E E
|-5--5-5-5--5-5-|-(5)-5-5-5-5--3-3-|
|-5--5-5-5--5-5-|-(5)-5-5-5-5--3-3-|
|-7--7-7-7--7-7-|-(7)-7-7-7-7--5-5-|
|-7--7-7-7--7-7-|-(7)-7-7-7-7--5-5-|
|-5--5-5-5--5-5-|-(5)-5-5-5-5--3-3-|
|---------------|------------------|


             G/B                   Dsus2                           Em11/D
  Q  E E E E Q    E E E E Q  E E   E  E  E E Q  E E   +E  E E E Q  Q
|-3--3-3-3-3-3--|-3-3-3-3-3--3-3-|-5-(5)-5-5-5--5-5-|-(5)-5-5-5-5--5--|
|-3--3-3-3-3-3--|-3-3-3-3-3--3-3-|-5-(5)-5-5-5--5-5-|-(5)-5-5-5-5--5--|
|-5--5-5-5-5-4--|-4-4-4-4-4--4-4-|-7-(7)-7-7-7--7-7-|-(7)-7-7-7-7--7--|
|-5--5-5-5-5-5--|-5-5-5-5-5--5-5-|-5h=7--7-7-7--7-7-|-(7)-7-7-7-7--5--|
|-3--3-3-3-3-2--|-2-2-2-2-2--2-2-|-5-(5)-5-5-5--5-5-|-(5)-5-5-5-5--5--|
|---------------|----------------|------------------|-----------------|


  Fsus2           G                     C5     Dsus2
   Q   E  E  E  E  Q     E  E  E  E  Q  Q    E Q  E Q.   E   +E  Q  E Q  Q
|--8---8--8--8--8-10--|-10-10-10-10-10-----|---5--5-5----5-|-(5)-5--5-5--5--||
|--8---8--8--8--8-12--|-12-12-12-12-12-----|---5--5-5----5-|-(5)-5--5-5--5--||
|-10--10-10-10-10-12--|-12-12-12-12-12--5--|-5s7--7-7----7-|-(7)-7--7-7--7--||
|-10--10-10-10-10-12--|-12-12-12-12-12--5--|-5s7--7-7----7-|-(7)-7--7-7--7--||
|--8---8--8--8--8-10--|-10-10-10-10-10--3--|-3s5--5-5----5-|-(5)-5--5-5--5--||
|---------------------|--------------------|---------------|----------------||


   Chorus
    F5D5  F5D5  F5D5    F5D5  F5G5      F5D5
    Gtrs I, II
    E E E E E E E E   E E E E E E E E   E E E E Q  E E   E E E E Q  E E
||------------------|-----------------|----------------|-----------------|
||o-----------------|-----------------|----------------|-----------------|
||------------------|-----------------|----------------|-----------------|
||--3p0-0-3p0-0-3p0-|-0-3p0-0-3s5-5-5-|-3-0---0-0----0-|---0---0-0----0--|
||o-3p0-0-3p0-0-3p0-|-0-3p0-0-3s5-5-5-|-3-0---0-0----0-|---0---0-0----0--|
||--3p0-0-3p0-0-3p0-|-0-3p0-0-3s5-5-5-|-3-0---0-0----0-|---0---0-0----0--|


                                                           D.S. al Coda
  D5    Am/C  Asus2/B F5      G5      F5D5               N.C.
                                                    PM-------|   PM----|
  E E E E E E E E   E E E E E E E E   E E E E Q  E  E    E E E E E E E E
|-----------------|-----------------|------------------|------------------||
|-----------------|-----------------|------------------|-----------------o||
|-----------------|-----------------|------------------|------------------||
|-7-7-7-7-7-7-7-7-|-7-3-3-3-3s5-5-5-|-3-0---0-0--------|------------------||
|-5-5-5-3-3-3-2-2-|-2-3-3-3-3s5-5-5-|-3-0---0-0----(0)-|-------3---------o||
|-----------------|---3-3-3-3s5-5-5-|-3-0---0-0-----0--|-3-4-5---5-4-3-0--||


 Pre-Chorus
  &
  Csus2                            Dsus2                        Fsus2
  Gtr III
  Q  E E E E Q    E E E E Q  E E   Q  E E Q  E E   +E  E E E Q   E  E
|-3--3-3-3-3-3--|-3-3-3-3-3--3-3-|-5--5-5-5--5-5-|-(5)-5-5-5-5---8--8-|
|-3--3-3-3-3-3--|-3-3-3-3-3--3-3-|-5--5-5-5--5-5-|-(5)-5-5-5-5---8--8-|
|-5--5-5-5-5-5--|-5-5-5-5-5--5-5-|-7--7-7-7--7-7-|-(7)-7-7-7-7--10-10-|
|-5--5-5-5-5-5--|-5-5-5-5-5--5-5-|-7--7-7-7--7-7-|-(7)-7-7-7-7--10-10-|
|-3--3-3-3-3-3--|-3-3-3-3-3--3-3-|-5--5-5-5--5-5-|-(5)-5-5-5-5---8--8-|
|---------------|----------------|---------------|--------------------|


                   Gsus2
   Q    E  E  E  E  Q      E   E  E  E  Q   E  E
|--8----8--8--8--8-10--|--10--10-10-10-10--10-10-|
|--8----8--8--8--8-10--|--10--10-10-10-10--10-10-|
|-10---10-10-10-10-12--|--12--12-12-12-12--12-12-|
|-10---10-10-10-10-12--|--12--12-12-12-12--12-12-|
|--8----8--8--8--8-10--|--10--10-10-10-10--10-10-|
|----------------------|-------------------------|
|
| Gtr I
|  H.               Q     +W
|----------------------|-------------------------|
|----------------------|-------------------------|
|-10---------------12--|-(12)--------------------|
|-10---------------12--|-(12)--------------------|
|--8---------------10--|-(10)--------------------|
|----------------------|-------------------------|


  Dsus2                        Csus2
  Q  E E Q  E E   +E  E E E Q  E E
|-5--5-5-5--5-5-|-(5)-5-5-5-5--3-3-|
|-5--5-5-5--5-5-|-(5)-5-5-5-5--3-3-|
|-7--7-7-7--7-7-|-(7)-7-7-7-7--5-5-|
|-7--7-7-7--7-7-|-(7)-7-7-7-7--5-5-|
|-5--5-5-5--5-5-|-(5)-5-5-5-5--3-3-|
|---------------|------------------|
|
| >
| W               +W
|---------------|------------------|
|---------------|------------------|
|-7-------------|-(7)--------------|
|-7-------------|-(7)--------------|
|-5-------------|-(5)--------------|
|---------------|------------------|


  Csus2       G/B                     Dsus2                           Em11/D
  Q   E E E E Q     E  E E E Q  E E   E  E  E E Q  E E   +E  E E E Q  Q
|-3---3-3-3-3-3--|--3--3-3-3-3--3-3-|-5-(5)-5-5-5--5-5-|-(5)-5-5-5-5--5--|
|-3---3-3-3-3-3--|--3--3-3-3-3--3-3-|-5-(5)-5-5-5--5-5-|-(5)-5-5-5-5--5--|
|-5---5-5-5-5-4--|--4--4-4-4-4--4-4-|-7-(7)-7-7-7--7-7-|-(7)-7-7-7-7--7--|
|-5---5-5-5-5-5--|--5--5-5-5-5--5-5-|-5h=7--7-7-7--7-7-|-(7)-7-7-7-7--5--|
|-3---3-3-3-3-2--|--2--2-2-2-2--2-2-|-5-(5)-5-5-5--5-5-|-(5)-5-5-5-5--5--|
|----------------|------------------|------------------|-----------------|
|
|                                     >
| H.          Q    +H        H        W                  +W
|----------------|------------------|------------------|-----------------|
|----------------|------------------|------------------|-----------------|
|-0-----------4--|-(4)-------4------|-7----------------|-(7)-------------|
|-2-----------5--|-(5)-------5------|-7----------------|-(7)-------------|
|-------------2--|-(2)-------2------|-5----------------|-(5)-------------|
|----------------|------------------|------------------|-----------------|


  Fsus2            G                       C5
   Q    E  E  E  E  Q      E   E  E  E  Q  Q
|--8----8--8--8--8-10--|--10--10-10-10-10-----|
|--8----8--8--8--8-12--|--12--12-12-12-12-----|
|-10---10-10-10-10-12--|--12--12-12-12-12--5--|
|-10---10-10-10-10-12--|--12--12-12-12-12--5--|
|--8----8--8--8--8-10--|--10--10-10-10-10--3--|
|----------------------|----------------------|
|
|  H.               Q     +W
|----------------------|----------------------|
|----------------------|----------------------|
|-10---------------12--|-(12)-----------------|
|-10---------------12--|-(12)-----------------|
|--8---------------10--|-(10)-----------------|
|----------------------|----------------------|


     Dsus2
   E Q  E Q.   E    +E  Q  E Q  Q
|----5--5-5----5-|--(5)-5--5-5--5--||
|----5--5-5----5-|--(5)-5--5-5--5--||
|--5s7--7-7----7-|--(7)-7--7-7--7--||
|--5s7--7-7----7-|--(7)-7--7-7--7--||
|--3s5--5-5----5-|--(5)-5--5-5--5--||
|----------------|-----------------||
|
|  >
|  W                +W
|----------------|-----------------||
|-15-------------|-(15)------------||
|-14-------------|-(14)------------||
|-12-------------|-(12)------------||
|----------------|-----------------||
|----------------|-----------------||


   Chorus
    F5D5  F5D5  F5D5    F5D5  F5G5      F5D5
    Gtrs I, II
    E E E E E E E E   E E E E E E E E   E E E E Q  E E   E E E E Q  E E
||------------------|-----------------|----------------|-----------------|
||o-----------------|-----------------|----------------|-----------------|
||------------------|-----------------|----------------|-----------------|
||--3p0-0-3p0-0-3p0-|-0-3p0-0-3s5-5-5-|-3-0---0-0----0-|---0---0-0----0--|
||o-3p0-0-3p0-0-3p0-|-0-3p0-0-3s5-5-5-|-3-0---0-0----0-|---0---0-0----0--|
||--3p0-0-3p0-0-3p0-|-0-3p0-0-3s5-5-5-|-3-0---0-0----0-|---0---0-0----0--|


  D5    Am/C  Asus2/B F5      G5      F5D5               N.C.
                                                    PM-------|   PM----|
  E E E E E E E E   E E E E E E E E   E E E E Q  E  E    E E E E E E E E
|-----------------|-----------------|------------------|------------------||
|-----------------|-----------------|------------------|-----------------o||
|-----------------|-----------------|------------------|------------------||
|-7-7-7-7-7-7-7-7-|-7-3-3-3-3s5-5-5-|-3-0---0-0--------|------------------||
|-5-5-5-3-3-3-2-2-|-2-3-3-3-3s5-5-5-|-3-0---0-0----(0)-|-------3---------o||
|-----------------|---3-3-3-3s5-5-5-|-3-0---0-0-----0--|-3-4-5---5-4-3-0--||


 Interlude
  N.C.
                   2/4       4/4                 2/4
  Gtr I
  E E E E E E E E   E E E E   E S S E E E E E E   E E E E
|-----------------|---------|-------------------|----------||
|-----------------|---------|-------------------|----------||
|-----------------|---------|-------------------|----------||
|-----------------|---------|-------------------|----------||
|-------3-----5---|---------|---------3-----5---|----------||
|-0-0-0---0-0---0-|-5-0-6-0-|-0-0-0-0---0-0---0-|-5-0-3-0--||


   4/4                 2/4       4/4                 2/4
    Gtrs I, II
    E S S E E E E E E   E E E E   E S S E E E E E E   E E E E
||--------------------|---------|-------------------|----------|
||o-------------------|---------|-------------------|----------|
||--------------------|---------|-------------------|----------|
||--------------------|---------|-------------------|----------|
||o---------3-----5---|---------|---------3-----5---|----------|
||--0-0-0-0---0-0---0-|-5-0-6-0-|-0-0-0-0---0-0---0-|-5-0-3-0--|


 4/4                 2/4       4/4                 2/4
  E S S E E E E E E   E E E E   E S S E E E E E E   E E E E
|-------------------|---------|-------------------|----------||
|-------------------|---------|-------------------|---------o||
|-------------------|---------|-------------------|----------||
|-------------------|---------|-------------------|----------||
|---------3-----5---|---------|---------3-----5---|---3-----o||
|-0-0-0-0---0-0---0-|-5-0-6-0-|-0-0-0-0---0-0---3-|-4---4-3--||


 4/4               2/4       4/4               2/4
  Gtr IV
  E E E E E E E E   E E E E   E E E E E E E E   E E E E
|-----------------|---------|-----------------|---------|
|-----------------|---------|-----------------|---------|
|-----------------|---------|-----------------|---------|
|-----------------|---------|-----------------|---------|
|-------3-----5---|---------|-------3-----5---|---------|
|-0-0-0---0-0---0-|-5-0-6-0-|-0-0-0---0-0---0-|-5-0-3-0-|


 4/4               2/4       4/4               2/4
                                          GtGtrs I, II
  E E E E E E E E   E E E E   E E E E E E E E   E E E E
|-----------------|---------|-----------------|---------||
|-----------------|---------|-----------------|---------||
|-----------------|---------|-----------------|---------||
|-----------------|---------|-----------------|---------||
|-------3-----5---|---------|-------3-----5---|---3-----||
|-0-0-0---0-0---0-|-5-0-6-0-|-0-0-0---0-0---3-|-4---4-3-||


   4/4                 2/4       4/4                 2/4
    E S S E E E E E E   E E E E   E S S E E E E E E   E E E E
||--------------------|---------|-------------------|----------|
||o-------------------|---------|-------------------|----------|
||--------------------|---------|-------------------|----------|
||--------------------|---------|-------------------|----------|
||o---------3-----5---|---------|---------3-----5---|----------|
||--0-0-0-0---0-0---0-|-5-0-6-0-|-0-0-0-0---0-0---0-|-5-0-3-0--|


  1.
 4/4                 2/4       4/4                 2/4
  E S S E E E E E E   E E E E   E S S E E E E E E   E E E E
|-------------------|---------|-------------------|----------||
|-------------------|---------|-------------------|---------o||
|-------------------|---------|-------------------|----------||
|-------------------|---------|-------------------|----------||
|---------3-----5---|---------|---------3-----5---|---3-----o||
|-0-0-0-0---0-0---0-|-5-0-6-0-|-0-0-0-0---0-0---3-|-4---4-3--||


  2.
 4/4                 2/4       4/4                 2/4
  E S S E E E E E E   E E E E   E S S E E E E E E   H
|-------------------|---------|-------------------|------||
|-------------------|---------|-------------------|------||
|-------------------|---------|-------------------|------||
|-------------------|---------|-------------------|------||
|---------3-----5---|---------|---------3-----5---|------||
|-0-0-0-0---0-0---0-|-5-0-6-0-|-0-0-0-0---0-0-----|------||


   Chorus
    F5D5  F5D5  F5D5    F5D5  F5G5      F5D5
   4/4
    E E E E E E E E   E E E E E E E E   E E E E Q  E E   E E E E Q  E E
||------------------|-----------------|----------------|----------------|
||o-----------------|-----------------|----------------|----------------|
||------------------|-----------------|----------------|----------------|
||--3p0-0-3p0-0-3p0-|-0-3p0-0-3s5-5-5-|-3-0---0-0----0-|---0---0-0----0-|
||o-3p0-0-3p0-0-3p0-|-0-3p0-0-3s5-5-5-|-3-0---0-0----0-|---0---0-0----0-|
||--3p0-0-3p0-0-3p0-|-0-3p0-0-3s5-5-5-|-3-0---0-0----0-|---0---0-0----0-|


  D5    Am/C  Asus2/B F5      G5      F5D5               N.C.
                                                    PM-------|   PM----|
  E E E E E E E E   E E E E E E E E   E E E E Q  E  E    E E E E E E E E
|-----------------|-----------------|------------------|------------------||
|-----------------|-----------------|------------------|-----------------o||
|-----------------|-----------------|------------------|------------------||
|-7-7-7-7-7-7-7-7-|-7-3-3-3-3s5-5-5-|-3-0---0-0--------|------------------||
|-5-5-5-3-3-3-2-2-|-2-3-3-3-3s5-5-5-|-3-0---0-0----(0)-|-------3---------o||
|-----------------|---3-3-3-3s5-5-5-|-3-0---0-0-----0--|-3-4-5---5-4-3-0--||


  F5D5  F5D5  F5D5    F5D5  F5G5      F5D5
  E E E E E E E E   E E E E E E E E   E E E E Q  E E   E E E E Q  E E
|-----------------|-----------------|----------------|----------------|
|-----------------|-----------------|----------------|----------------|
|-----------------|-----------------|----------------|----------------|
|-3p0-0-3p0-0-3p0-|-0-3p0-0-3s5-5-5-|-3-0---0-0----0-|---0---0-0----0-|
|-3p0-0-3p0-0-3p0-|-0-3p0-0-3s5-5-5-|-3-0---0-0----0-|---0---0-0----0-|
|-3p0-0-3p0-0-3p0-|-0-3p0-0-3s5-5-5-|-3-0---0-0----0-|---0---0-0----0-|


  D5    Am/C  Asus2/B F5      G5      F5D5               N.C.
  E E E E E E E E   E E E E E E E E   E E E E Q  E  E    E E E E E E E E
|-----------------|-----------------|------------------|-----------------|
|-----------------|-----------------|------------------|-----------------|
|-----------------|-----------------|------------------|-----------------|
|-7-7-7-7-7-7-7-7-|-7-3-3-3-3s5-5-5-|-3-0---0-0--------|-----------------|
|-5-5-5-3-3-3-2-2-|-2-3-3-3-3s5-5-5-|-3-0---0-0----(0)-|-------3---------|
|-----------------|---3-3-3-3s5-5-5-|-3-0---0-0-----0--|-3-4-5---5-4-3-0-|


  F5D5  F5D5  F5D5    F5D5  F5G5      F5D5
  E E E E E E E E   E E E E E E E E   E E E E Q  E E   E E E E Q  E E
|-----------------|-----------------|----------------|----------------|
|-----------------|-----------------|----------------|----------------|
|-----------------|-----------------|----------------|----------------|
|-3p0-0-3p0-0-3p0-|-0-3p0-0-3s5-5-5-|-3-0---0-0----0-|---0---0-0----0-|
|-3p0-0-3p0-0-3p0-|-0-3p0-0-3s5-5-5-|-3-0---0-0----0-|---0---0-0----0-|
|-3p0-0-3p0-0-3p0-|-0-3p0-0-3s5-5-5-|-3-0---0-0----0-|---0---0-0----0-|


  D5   D5/C   D5/B     Fsus2F5G5      F5D5               N.C.
                                                    PM-------|   PM----|
  Q.   E +Q   Q    +E  Q  E E E E E   E E E E Q  E  E    E E E E E E E E
|----------------|------------------|------------------|-----------------||
|----------------|------------------|------------------|-----------------||
|-7----7-(7)--7--|-(7)-0--0---------|------------------|-----------------||
|-7----7-(7)--7--|-(7)-3--3-3s5-5-5-|-3-0---0-0--------|-----------------||
|-5----3-(3)--2--|-(2)-3--3-3s5-5-5-|-3-0---0-0----(0)-|-------3---------||
|----------------|-----3--3-3s5-5-5-|-3-0---0-0-----0--|-3-4-5---5-4-3-0-||


 Outro
  C5     G5    D5    F5G5  D5       C5     G5    D5    F5G5  D5
   H     E E E  E    E E E E H       H     E E E  E    E E E E E E Q
|------------------|--------------|------------------|----------------|
|------------------|--------------|------------------|----------------|
|------------------|--------------|------------------|----------------|
|------------------|-------0------|------------------|-------0-----0--|
|-10\----5---5-(0)-|-3-5---0------|-10\----5---5-(0)-|-3-5---0-----0--|
|-10\----5h6----0--|-3-5---0------|-10\----5h6----0--|-3-5---0---0-0--|


  C5     G5    D5    F5G5  D5       C5     G5    D5    F5G5  D5
   H     E E E  E    E E E E H       H     E E E  E    E E E E E E Q
|------------------|--------------|------------------|----------------*|
|------------------|--------------|------------------|----------------*|
|------------------|--------------|------------------|----------------*|
|------------------|-------0------|------------------|-------0-----0--*|
|-10\----5---5-(0)-|-3-5---0------|-10\----5---5-(0)-|-3-5---0-----0--*|
|-10\----5h6----0--|-3-5-0-0------|-10\----5h6----0--|-3-5---0---0-0--*|



Duration Legend
---------------
W - whole; H - half; Q - quarter; E - 8th; S - 16th; T - 32nd; X - 64th; a - acciaccatura
+ - note tied to previous; . - note dotted; .. - note double dotted
Uncapitalized letters represent notes that are staccato (1/2 duration)
Irregular groupings are notated above the duration line
Duration letters will always appear directly above the note/fret number it represents the
duration for.  Duration letters with no fret number below them represent rests.  Multi-
bar rests are notated in the form Wxn, where n is the number of bars to rest for.  Low
melody durations appear below the staff

Tablature Legend
----------------
 h   - hammer-on
 p   - pull-off
 b   - bend
 pb  - pre-bend
 r   - bend release (if no number after the r, then release immediately)
 /\  - slide into or out of (from/to "nowhere")
 s   - legato slide
 S   - shift slide
 - natural harmonic
[n]  - artificial harmonic
n(n) - tapped harmonic
 ~   - vibrato
 tr  - trill
 T   - tap
 TP  - trem. picking
 PM  - palm muting
\n/  - tremolo bar dip; n = amount to dip
 \n  - tremolo bar down
 n/  - tremolo bar up
/n\  - tremolo bar inverted dip
 =   - hold bend; also acts as connecting device for hammers/pulls
 <> - volume swell (louder/softer)
 x   - on rhythm slash represents muted slash
 o   - on rhythm slash represents single note slash

Misc Legend
-----------
 |  - bar
||  - double bar
||o - repeat start
o|| - repeat end
*|  - double bar (ending)
 :  - bar (freetime)
 $  - Segno
 &  - Coda
Tempo markers -  = BPM(8/16=s8/s16), where s8 = swing 8ths, s16 = swing 16ths

Tap to rate this tab
# A B C D E F G H I J K L M N O P Q R S T U V W X Y Z