Guitaretab - guitar tabs
Song name
# A B C D E F G H I J K L M N O P Q R S T U V W X Y Z

Porcupine Tree - Wedding Nails tab

#----------------------------------PLEASE NOTE---------------------------------#
#This file is the author's own work and represents their interpretation of the #
#song. You may only use this file for private study, scholarship, or research. #
#------------------------------------------------------------------------------#

WEDDING NAILS
As recorded by Porcupine Tree
(From the 2002 Album IN ABSENTIA)

Transcribed by David Letersky
	

Music by Steven Wilson

Gtr I (E A D G B E) - 'right distortion'
Gtr II (E A D G B E) - 'left distortion'
Gtr III (E A D G B E) - 'center distortion'
Gtr IV (E A D G B E) - 'high distortion'

 Intro
  Q=125
 4/4
  Gtr I
  PM|       PM--|         PM|       PM--|
  e e S S S e e e S S S   e e S S S e e e S E
|-----------------------|---------------------||
|-----------------------|---------------------||
|-----------------------|---------------------||
|---7-7p5---5---5---5h7-|---7-7p5---5---5---5-||
|-0-------6---6---6-----|-0-------6---6---6---||
|-----------------------|---------------------||


  PM|       PM--|         PM|
  e e S S S e e e S S S   e e S S S E E E E.
|-----------------------|--------------------||
|-----------------------|--------------------||
|-----------------------|-----------------6--||
|---7-7p5---5---5---5h7-|---7-7p5---5---5----||
|-0-------6---6---6-----|-0-------6---6------||
|-----------------------|--------------------||


  PM|       PM--|         PM|       PM--|
  e e S S S e e e S S S   e e S S S e e e S E
|-----------------------|---------------------||
|-----------------------|---------------------||
|-----------------------|---------------------||
|---7-7p5---5---5---5h7-|---7-7p5---5---5---5-||
|-0-------6---6---6-----|-0-------6---6---6---||
|-----------------------|---------------------||


                          E5 F5 G#5G5 BbA5
                          Gtrs I, II
  PM|       PM--|
  e e S S S e e e S S S   E. E. E. E. E E
|-----------------------|-----------------||
|-----------------------|-----------------||
|-----------------------|-----------------||
|---7-7p5---5---5---5h7-|-2--3/-6--5/-8-7-||
|-0-------6---6---6-----|-2--3/-6--5/-8-7-||
|-----------------------|-0--1/-4--3/-6-5-||


   Main Riff
    Gtrs I, II
    PM|       PM--|         PM|       PM--|
    e e S S S e e e S S S   e e S S S e e e S E
||------------------------|---------------------||
||o-----------------------|---------------------||
||------------------------|---------------------||
||----7-7p5---5---5---5h7-|---7-7p5---5---5---5-||
||o-0-------6---6---6-----|-0-------6---6---6---||
||------------------------|---------------------||


  PM|       PM--|         PM|
  e e S S S e e e S S S   e e S S S E E E E.
|-----------------------|---------------------||
|-----------------------|--------------------o||
|-----------------------|-----------------6---||
|---7-7p5---5---5---5h7-|---7-7p5---5---5-----||
|-0-------6---6---6-----|-0-------6---6------o||
|-----------------------|---------------------||


   1st Verse
    $
    A          Bb   A       Bb   C#         D     C#      D
    Gtrs I, II
     E S S S S E.   E   S S E.    E S S S S  E.   E   S S  E.
||--/5-5-5-5-5-6----5---5-5-6--|-/9-9-9-9-9-10----9---9-9-10--||
||o----------------------------|------------------------------||
||--/2-2-2-2-2-3----2---2-2-3--|-/6-6-6-6-6--7----6---6-6--7--||
||-----------------------------|------------------------------||
||o----------------------------|------------------------------||
||-----------------------------|------------------------------||
|
|   Gtr III
|    E S S S S E  S S S S S E.    E S S S S  E  S S S S S  E.
||-----------------------------|------------------------------||
||o--x-x-x-x-x-x--x-x-x-x-x-x--|--x-x-x-x-x--x--x-x-x-x-x--x--||
||---x-x-x-x-x-x--x-x-x-x-x-x--|--x-x-x-x-x--x--x-x-x-x-x--x--||
||---x-x-x-x-x-x--x-x-x-x-x-x--|--x-x-x-x-x--x--x-x-x-x-x--x--||
||o----------------------------|------------------------------||
||-----------------------------|------------------------------||


  E               F     E          F
    E  S  S  S  S  E.    E    S  S  E.
|-/12-12-12-12-12-13----12---12-12-13--|
|--------------------------------------|
|--/9--9--9--9--9-10-----9----9--9-10--|
|--------------------------------------|
|--------------------------------------|
|--------------------------------------|
|
|   E  S  S  S  S  E  S  S S  S  S  E.
|--------------------------------------|
|---x--x--x--x--x--x--x--x-x--x--x--x--|
|---x--x--x--x--x--x--x--x-x--x--x--x--|
|---x--x--x--x--x--x--x--x-x--x--x--x--|
|--------------------------------------|
|--------------------------------------|


                                     To Coda
  D        Eb   D          Eb   D         Bb
    S  E    E    S  S  E    E    S  S  S  E
|-/10-10---11---10-10-10---11---10-10-10--6---||
|--------------------------------------------o||
|--/7--7----8----7--7--7----8----7--7--7--3---||
|---------------------------------------------||
|--------------------------------------------o||
|---------------------------------------------||
|
|   E    S  S S  S  E    S  S S  S  S  E.
|---------------------------------------------||
|---x----x--x-x--x--x----x--x-x--x--x--x-----o||
|---x----x--x-x--x--x----x--x-x--x--x--x------||
|---x----x--x-x--x--x----x--x-x--x--x--x------||
|--------------------------------------------o||
|---------------------------------------------||


   2nd Verse
    Gtrs I, II
                                                    |--3--|
    S e   e   S S e   e   S S S S S   S e   e   S E S S   S S S S S   E
||----------------------------------|------------------------------------||
||o---------------------------------|--------------------------------10--||
||----------------------------------|-------------7-7h8p==7-------9------||
||--7h8---5-----7h8---5-----5h7h8-5-|-7h8---5---------------8p5S7--------||
||o-----------x-----------x---------|-----------x------------------------||
||----------------------------------|------------------------------------||
|
|   Gtr III
|   E   S S S S E   S S S S S E.      E   S S S S E S   S   S S S E.
||----------------------------------|------------------------------------||
||o-x---x-x-x-x-x---x-x-x-x-x-x-----|-x---x-x-x-x-x-x---x---x-x-x-x------||
||--x---x-x-x-x-x---x-x-x-x-x-x-----|-x---x-x-x-x-x-x---x---x-x-x-x------||
||--x---x-x-x-x-x---x-x-x-x-x-x-----|-x---x-x-x-x-x-x---x---x-x-x-x------||
||o---------------------------------|------------------------------------||
||----------------------------------|------------------------------------||


                                                       D.S. al Coda
                                                  |--3--|
  S e   e   S S e   e   S S S S S   S e   e   S E S S   S S S S S   E
|---------------------------------|------------------------------------||
|---------------------------------|--------------------------------10-o||
|---------------------------------|-------------7-7h8p==7-------9------||
|-7h8---5-----7h8---5-----5h7h8-5-|-6h8---6---------------8p5S7--------||
|-----------x-----------x---------|-----------x-----------------------o||
|---------------------------------|------------------------------------||
|
| E   S S S S E   S S S S S E.      E   S S S S E S   S   S S S E.
|---------------------------------|------------------------------------||
|-x---x-x-x-x-x---x-x-x-x-x-x-----|-x---x-x-x-x-x-x---x---x-x-x-x-----o||
|-x---x-x-x-x-x---x-x-x-x-x-x-----|-x---x-x-x-x-x-x---x---x-x-x-x------||
|-x---x-x-x-x-x---x-x-x-x-x-x-----|-x---x-x-x-x-x-x---x---x-x-x-x------||
|---------------------------------|-----------------------------------o||
|---------------------------------|------------------------------------||


 Bridge
  &
  Gtr I
  PM|       PM--|         PM|       PM--|
  e e S S S e e e S S S   e e S S S e e e S E
|-----------------------|---------------------||
|-----------------------|---------------------||
|-----------------------|---------------------||
|---7-7p5---5---5---5h7-|---7-7p5---5---5---5-||
|-0-------6---6---6-----|-0-------6---6---6---||
|-----------------------|---------------------||


                          E5 F5 G#5G5 BbA5
                          Gtrs I, II
  PM|       PM--|
  e e S S S e e e S S S   E. E. E. E. E E
|-----------------------|-----------------||
|-----------------------|-----------------||
|-----------------------|-----------------||
|---7-7p5---5---5---5h7-|-2--3/-6--5/-8-7-||
|-0-------6---6---6-----|-2--3/-6--5/-8-7-||
|-----------------------|-0--1/-4--3/-6-5-||


  Gtrs I, II
  PM|       PM--|         PM|       PM--|
  e e S S S e e e S S S   e e S S S e e e S E
|-----------------------|---------------------||
|-----------------------|---------------------||
|-----------------------|---------------------||
|---7-7p5---5---5---5h7-|---7-7p5---5---5---5-||
|-0-------6---6---6-----|-0-------6---6---6---||
|-----------------------|---------------------||


  PM|       PM--|         PM|
  e e S S S e e e S S S   e e S S S E E E E.
|-----------------------|--------------------||
|-----------------------|--------------------||
|-----------------------|-----------------6--||
|---7-7p5---5---5---5h7-|---7-7p5---5---5----||
|-0-------6---6---6-----|-0-------6---6------||
|-----------------------|--------------------||


  PM|       PM--|         PM|       PM--|
  e e S S S e e e S S S   e e S S S e e e S E
|-----------------------|---------------------||
|-----------------------|---------------------||
|-----------------------|---------------------||
|---7-7p5---5---5---5h7-|---7-7p5---5---5---5-||
|-0-------6---6---6-----|-0-------6---6---6---||
|-----------------------|---------------------||


                            E5 F5 G#5G5 BbA5
  PM|       PM--|
  e e S S S e e e S S S     E. E. E. E. E E
|-----------------------||-------------------||
|-----------------------||o-----------------o||
|-----------------------||-------------------||
|---7-7p5---5---5---5h7-||--2--3/-6--5/-8-7--||
|-0-------6---6---6-----||o-2--3/-6--5/-8-7-o||
|-----------------------||--0--1/-4--3/-6-5--||


                                       Interlude
    G#G5 F5     E5 F5 G#5G5 BbA5          G#G5           F5E5
 3/4           4/4
  E E q  Q      E. E. E. E. E E         E E E H    E   E E E H    E 10x
|-----------||-------------------||-||---------------|---------------||
|-----------||o-----------------o||-||o--------------|--------------o||
|-----------||-------------------||-||---------------|---------------||
|---6-5--3--||--2--3/-6--5/-8-7--||-||----6-5--------|---3-2---------||
|---6-5--3--||o-2--3/-6--5/-8-7-o||-||o---6-5--------|---3-2--------o||
|---4-3--1--||--0--1/-4--3/-6-5--||-||----4-3--------|---1-0---------||


 Guitar Solo (sort of)
    G#G5                    F5E5
  Gtr IV
  H        S  S  e Q     Q.      S  S  e Q.
|---------16s15-13-----|--------16s15-13-------|
|----------------------|-----------------------|
|----------------------|-----------------------|
|----------------------|-----------------------|
|----------------------|-----------------------|
|----------------------|-----------------------|
|
| Gtrs I, II
| E E E H            E   E  E E  H           E
|----------------------|-----------------------|
|----------------------|-----------------------|
|----------------------|-----------------------|
|---6-5----------------|----3-2----------------|
|---6-5----------------|----3-2----------------|
|---4-3----------------|----1-0----------------|


    G#5G5                F5E5
        ~~~
  E  E  Q.     e Q     H       E  E  S  S E
|---15-12------------|-----------12-13-12----||
|-------------15-----|-----------------------||
|--------------------|--------------------9--||
|--------------------|-----------------------||
|--------------------|-----------------------||
|--------------------|-----------------------||
|
| E  E  E  H       E   E E E H            E
|--------------------|-----------------------||
|--------------------|-----------------------||
|--------------------|-----------------------||
|----6--5------------|---3-2-----------------||
|----6--5------------|---3-2-----------------||
|----4--3------------|---1-0-----------------||

[ Tab from: http://www.guitaretab.com/p/porcupine-tree/51149.html ]
     G#G5                    F5  E5
             ~~               ~~~              ~~
  Q.      E  E  +E   Q     E  Q.      E  E  E  E
|--------16-17-(17)\-----|---20------19-16-------|
|------------------------|-----------------17-18-|
|------------------------|-----------------------|
|------------------------|-----------------------|
|------------------------|-----------------------|
|------------------------|-----------------------|
|
| E  E E  H            E   E  E  E H           E
|------------------------|-----------------------|
|------------------------|-----------------------|
|------------------------|-----------------------|
|----6-5-----------------|----3--2---------------|
|----6-5-----------------|----3--2---------------|
|----4-3-----------------|----1--0---------------|


       G#5G5                             F5E5
   +E   E Q.     E  S.  S    S.    S  E.    q   Q   E  E
|-------------------------------|----------11-------------||
|-(18)-17-------12-13--12-------|-12-13---------------12--||
|---------------------------14--|------------------14-----||
|-------------------------------|-------------------------||
|-------------------------------|-------------------------||
|-------------------------------|-------------------------||
|
|   E   E E  H            E        E     E  E H        E
|-------------------------------|-------------------------||
|-------------------------------|-------------------------||
|-------------------------------|-------------------------||
|-------6-5---------------------|--------3--2-------------||
|-------6-5---------------------|--------3--2-------------||
|-------4-3---------------------|--------1--0-------------||


     G#G5                   F5E5
   ~~                               ~~~
   Q    e Q.    S  S  E   H         Q  Q
|--------------13s12-11-|---------\13------|
|-13---12---------------|---------\17------|
|-----------------------|------------------|
|-----------------------|------------------|
|-----------------------|------------------|
|-----------------------|------------------|
|
|  E E  E H           E   E E E H        E
|-----------------------|------------------|
|-----------------------|------------------|
|-----------------------|------------------|
|----6--5---------------|---3-2------------|
|----6--5---------------|---3-2------------|
|----4--3---------------|---1-0------------|


     G#G5                 F5 E5
   Q   E  Q  Q   E    +E   E H.
|-13-----13-----15-|-(15)s16-----------||
|-17-----17--------|-------------------||
|------------------|-------------------||
|------------------|-------------------||
|------------------|-------------------||
|------------------|-------------------||
|
|  E E E  H      E     E   E E  H    E
|------------------|-------------------||
|------------------|-------------------||
|------------------|-------------------||
|----6-5-----------|-------3-2---------||
|----6-5-----------|-------3-2---------||
|----4-3-----------|-------1-0---------||


    G#G5                              F5E5
  Q    Q       T  T  T  S.  E. E   Q.       E.  E  S S E.
|-----15b17---16-15-12-15--15----|--------/12--13-12--------|
|--------------------------------|--------------------------|
|--------------------------------|-------------------9------|
|--------------------------------|--------------------------|
|--------------------------------|--------------------------|
|--------------------------------|--------------------------|
|
| E E  E    H                  E   E  E E   H             E
|--------------------------------|--------------------------|
|--------------------------------|--------------------------|
|--------------------------------|--------------------------|
|---6--5-------------------------|----3-2-------------------|
|---6--5-------------------------|----3-2-------------------|
|---4--3-------------------------|----1-0-------------------|


         G#5         G5                              F5     E5
                                                               ~~
   S.  T  T  T  T  e   Q    E  S  S  S    S.    S  S  S  E.    E H
|-20--19-18-18s19s20-------20-19-17-16---17--|-------16----------------||
|--------------------------------------------|-18-17----18----17-------||
|--------------------------------------------|-------------------------||
|--------------------------------------------|-------------------------||
|--------------------------------------------|-------------------------||
|--------------------------------------------|-------------------------||
|
|  E      E          E   H             E        E     E     E  H     E
|--------------------------------------------|-------------------------||
|--------------------------------------------|-------------------------||
|--------------------------------------------|-------------------------||
|---------6----------5-----------------------|--------3-----2----------||
|---------6----------5-----------------------|--------3-----2----------||
|---------4----------3-----------------------|--------1-----0----------||


   Synth
      G#G5           F5E5
    Gtrs I, II
    E E E H    E   E E E H    E  4x
||---------------|---------------||
||o--------------|--------------o||
||---------------|---------------||
||----6-5--------|---3-2---------||
||o---6-5--------|---3-2--------o||
||----4-3--------|---1-0---------||


 Interlude Outro
  Wx17
|---------||
|---------||
|---------||
|---------||
|---------||
|---------||


   3rd Verse
    $$
    A          Bb       A   Bb   C#         D        C#  D
    Gtrs I, II
     E S S S S E.   E   S S E.    E S S S S E.   E   S S E.
||--/4-4-4-4-4-5----4---4-4-5--|-/8-8-8-8-8-9----8---8-8-9--||
||o----------------------------|----------------------------||
||--/1-1-1-1-1-2----1---1-1-2--|-/5-5-5-5-5-6----5---5-5-6--||
||-----------------------------|----------------------------||
||o----------------------------|----------------------------||
||-----------------------------|----------------------------||
|
|   Gtr III
|    E S S S S E  S S S S S E.    E S S S S E  S S S S S E.
||-----------------------------|----------------------------||
||o--x-x-x-x-x-x--x-x-x-x-x-x--|--x-x-x-x-x-x--x-x-x-x-x-x--||
||---x-x-x-x-x-x--x-x-x-x-x-x--|--x-x-x-x-x-x--x-x-x-x-x-x--||
||---x-x-x-x-x-x--x-x-x-x-x-x--|--x-x-x-x-x-x--x-x-x-x-x-x--||
||o----------------------------|----------------------------||
||-----------------------------|----------------------------||


                                                               To Dbl. Coda
  E               F          E     F     D           Eb  D            Db   Bb
    E  S  S  S  S  E.    E    S  S  E.    S E    E   S S E    E   S S S  E
|-/11-11-11-11-11-12----11---11-11-12--|-/9-9---10---9-9-9---10---9-9-9--5---||
|--------------------------------------|------------------------------------o||
|--/8--8--8--8--8--9-----8----8--8--9--|-/6-6----7---6-6-6----7---6-6-6--2---||
|--------------------------------------|-------------------------------------||
|--------------------------------------|------------------------------------o||
|--------------------------------------|-------------------------------------||
|
|   E  S  S  S  S  E  S  S S  S  S  E.    E   S  S S S E   S  S S S S E.
|--------------------------------------|-------------------------------------||
|---x--x--x--x--x--x--x--x-x--x--x--x--|--x---x--x-x-x-x---x--x-x-x-x-x-----o||
|---x--x--x--x--x--x--x--x-x--x--x--x--|--x---x--x-x-x-x---x--x-x-x-x-x------||
|---x--x--x--x--x--x--x--x-x--x--x--x--|--x---x--x-x-x-x---x--x-x-x-x-x------||
|--------------------------------------|------------------------------------o||
|--------------------------------------|-------------------------------------||


   4th Verse
                                                    |--3--|
    S e   e   S S e   e   S S S S S   S e   e   S E S S   S S S S S  E
||----------------------------------|-----------------------------------||
||o---------------------------------|--------------------------------9--||
||----------------------------------|-------------6-6h7---6-------8-----||
||--6h7---4-----6h7---4-----4h6h7-4-|-6h7---4---------------7p4S6-------||
||o-----------x-----------x---------|-----------x-----------------------||
||----------------------------------|-----------------------------------||
|
|   E   S S S S E   S S S S S E.      E   S S S S E S   S   S S S E.
||----------------------------------|-----------------------------------||
||o-x---x-x-x-x-x---x-x-x-x-x-x-----|-x---x-x-x-x-x-x---x---x-x-x-x-----||
||--x---x-x-x-x-x---x-x-x-x-x-x-----|-x---x-x-x-x-x-x---x---x-x-x-x-----||
||--x---x-x-x-x-x---x-x-x-x-x-x-----|-x---x-x-x-x-x-x---x---x-x-x-x-----||
||o---------------------------------|-----------------------------------||
||----------------------------------|-----------------------------------||


                                                  D.S.S. al Dbl. Coda
                                                  |--3--|
  S e   e   S S e   e   S S S S S   S e   e   S E S S   S S S S S  E
|---------------------------------|-------------------------------------||
|---------------------------------|--------------------------------9---o||
|---------------------------------|-------------6-6h7---6-------8-------||
|-6h7---4-----6h7---4-----4h6h7-4-|-5h7---5---------------7p4S6---------||
|-----------x-----------x---------|-----------x------------------------o||
|---------------------------------|-------------------------------------||
|
| E   S S S S E   S S S S S E.      E   S S S S E S   S   S S S E.
|---------------------------------|-------------------------------------||
|-x---x-x-x-x-x---x-x-x-x-x-x-----|-x---x-x-x-x-x-x---x---x-x-x-x------o||
|-x---x-x-x-x-x---x-x-x-x-x-x-----|-x---x-x-x-x-x-x---x---x-x-x-x-------||
|-x---x-x-x-x-x---x-x-x-x-x-x-----|-x---x-x-x-x-x-x---x---x-x-x-x-------||
|---------------------------------|------------------------------------o||
|---------------------------------|-------------------------------------||


   Ending Riff
    &&
    G#5 F#G#5 B5 F#5G5   G#5 F#G#5 B5 F#5G5
    S S S E S q  E. E.   S S S E S q  E. E.
||---------------------|--------------------|
||o--------------------|--------------------|
||---------------------|--------------------|
||------------4--------|-----------4--------|
||o-6-6-4-6---2--4--5--|-6-6-4-6---2--4--5--|
||--4-4-2-4------2--3--|-4-4-2-4------2--3--|


                      1.,2.,3.
  G#5 F#G#5 B5 F#5G5   G#5 F#G#5 B5 G5F#5
  S S S E S q  E. E.   S S S E S q  E E. S  4x
|--------------------|----------------------||
|--------------------|---------------------o||
|--------------------|--------------7-6-----||
|-----------4--------|-----------4--5-4-----||
|-6-6-4-6---2--4--5--|-6-6-4-6---2---------o||
|-4-4-2-4------2--3--|-4-4-2-4--------------||


  4.
  G#5 F#G#5 B5 G5F#5
                 >
  S S S E S q  E Q    +W           +W           +W
|-------------------|------------|------------|--------||
|-------------------|------------|------------|--------||
|--------------7-6--|-(6)--------|-(6)--------|-(6)----||
|-----------4--5-4--|-(4)--------|-(4)--------|-(4)----||
|-6-6-4-6---2-------|------------|------------|--------||
|-4-4-2-4-----------|------------|------------|--------||


 Outro
  W          W          W          W
|----------|----------|----------|------*|
|----------|----------|----------|------*|
|----------|----------|----------|------*|
|----------|----------|----------|------*|
|----------|----------|----------|------*|
|----------|----------|----------|------*|



Duration Legend
---------------
W - whole; H - half; Q - quarter; E - 8th; S - 16th; T - 32nd; X - 64th; a - acciaccatura
+ - note tied to previous; . - note dotted; .. - note double dotted
Uncapitalized letters represent notes that are staccato (1/2 duration)
Irregular groupings are notated above the duration line
Duration letters will always appear directly above the note/fret number it represents the
duration for.  Duration letters with no fret number below them represent rests.  Multi-
bar rests are notated in the form Wxn, where n is the number of bars to rest for.  Low
melody durations appear below the staff

Tablature Legend
----------------
 h   - hammer-on
 p   - pull-off
 b   - bend
 pb  - pre-bend
 r   - bend release (if no number after the r, then release immediately)
 /\  - slide into or out of (from/to "nowhere")
 s   - legato slide
 S   - shift slide
 - natural harmonic
[n]  - artificial harmonic
n(n) - tapped harmonic
 ~   - vibrato
 tr  - trill
 T   - tap
 TP  - trem. picking
 PM  - palm muting
\n/  - tremolo bar dip; n = amount to dip
 \n  - tremolo bar down
 n/  - tremolo bar up
/n\  - tremolo bar inverted dip
 =   - hold bend; also acts as connecting device for hammers/pulls
 <> - volume swell (louder/softer)
 x   - on rhythm slash represents muted slash
 o   - on rhythm slash represents single note slash

Misc Legend
-----------
 |  - bar
||  - double bar
||o - repeat start
o|| - repeat end
*|  - double bar (ending)
 :  - bar (freetime)
 $  - Segno
 &  - Coda
Tempo markers -  = BPM(8/16=s8/s16), where s8 = swing 8ths, s16 = swing 16ths



Related for Wedding Nails tab
Advertisement will be closed in 10 seconds