Guitaretab - guitar tabs
Song name
# A B C D E F G H I J K L M N O P Q R S T U V W X Y Z

Portastatic - Full Of Stars tab

Highlighted       Show chord diagrams
-------------------------------------------------------------------------------
			Full of Stars - Portastatic
-------------------------------------------------------------------------------
Tabbed by: Jeff

intro:
   C6 C           Fmaj7    Cmaj7   Fmaj7
e|-0--0----0--0---0--------0-------0--------------------------------------------------|
B|-3--1----3--1---1--------0-------1--------------------------------------------------|
G|-0--0----0--0---2--------0-------2--------------------------------------------------|
D|-2--2----2--2---3--------2-------3--------------------------------------------------|
A|-3--3----3--3---0--------3-------0--------------------------------------------------|
E|------------------------------------------------------------------------------------|

play rhythm guitar part like this, with palm muting:
e----------------------------|
B----------------------------|
G----------------------------|
D-2-0-0-2-0-0-2-0--3-3-3-3---|
A-3-3-3-3-3-3-3-3--3-3-3-3---|
E------------------1-1-1-1---|


C               F             C         F
     There's an ocean in your ears.

C               F             C         F
     There's an ocean in your ears.

              C          G            F     Em       Am   G         F
     It might take seven seas for the salty water to wash away your tears.
[ Tab from: http://www.guitaretab.com/p/portastatic/177198.html ]
                G                              F             C
     But if you listen, little girl there's an ocean in your ears.

(play intro again)


C               F             C         F
     There's a moon against your cheek.


C                    F             C           F
     Yeah, there's a moon against your cheek.

                      C          G              F         Em
     And when you're feeling the ground and the wind gets wild,

            Am    G               F                G
    and the light around you gets weak - just look up, look up,

              F                 C
    there's a moon against your cheek.


C             F               C         F
     And your hair is full of stars.


C               F               C         F
     Yeah, your hair is full of stars.

          C          G     F                  Em
     It's a phosphorescent tangle 'round your head

                  Am     G          F
     and you will always know where you are.

                  G                         F               C
     Yeah, it's a messy constellation, your hair is full of stars.


     Full of stars.


| /  slide up
| \  slide down
| h  hammer-on
| p  pull-off
| ~  vibrato
| +  harmonic
| x  Mute note
===============================================================================
Related for Full Of Stars tab
Full Of Stars chords by Portastatic