Song name
# A B C D E F G H I J K L M N O P Q R S T U V W X Y Z

Portugal The Man - My Mind tab

John guitar 1
     E  E  E  E  E  E  E  E     E  E  E  E  E  E  E  E   
E||-----3--------3--------3--|--------3--------3--------|
B||--------4--------4--------|--4--------4--------4-----|
G||--5--------5--------5-----|-----5--------5--------5--|
D||--------------------------|--------------------------|
A||--------------------------|--------------------------|
E||--------------------------|--------------------------|


  E  E  E  E  E  E  E  E     E  E  E  E  E  E  E  E    
-----3--------3--------3--|--------3--------3---------|
--------3--------3--------|--3--------3--------3------|
--4--------4--------4-----|-----4--------4--------4s--|
--------------------------|---------------------------|
--------------------------|---------------------------|
--------------------------|---------------------------|


   E  E  E   E  E  E   E  E     E   E  E  E   E  E  E   E   
------8---------8---------8--|---------8---------8---------|
---------9---------9---------|--9---------9---------9------|
--10--------10--------10-----|-----10--------10--------10--|
-----------------------------|-----------------------------|
-----------------------------|-----------------------------|
-----------------------------|-----------------------------|


  E  E   E  E  E   E  E  E      E  E  E       E  E  E  E  E  E  E  E   
--8---------8---------8-----|------8-----||---3-----3-----3-----3-----|
-----9---------9---------9--|---------9--||---4-----4-----4-----4-----|
--------10--------10--------|--10--------||*-----5-----5-----5-----5--|
----------------------------|------------||*--------------------------|
----------------------------|------------||---------------------------|
----------------------------|------------||---------------------------|


  E  E  E  E  E  E  E  E        E    E  E   E  E   E  E   E   
--3-----3-----3-----3------|----8-------8------8------8------|
--3-----3-----3-----3------|----9-------9------9------9------|
-----4-----4-----4-----4s--|--(10)--10-----10-----10-----10--|
---------------------------|---------------------------------|
---------------------------|---------------------------------|
---------------------------|---------------------------------|


  E  E  E  E  E  E  E  E       E  E  E  E  E  E  E  E   
--3-----3-----3-----3------||--------------1--1--1--1--|
--4-----4-----3-----3------||-----------3--3--3--3--3--|
-----5-----5-----4-----4--*||--------3--3--3--3--3--3--|
--------------------------*||--3--3--3--3--3--3--3--3--|
---------------------------||--1--1--1--1--1--1--1--1--|
---------------------------||--------------------------|


  E  E  E  E  E  E  E  E     E  E  E  E  E  E  E  E   
--0--0--0--0--0--0--0--0--|--0--0--0--0--0--0--0--0--|
--2--2--2--2--2--2--2--2--|--2--2--2--2--2--2--2--2--|
--0--0--0--0--0--0--0--0--|--0--0--0--0--0--0--0--0--|
--2--2--2--2--2--2--2--2--|--2--2--2--2--2--2--2--2--|
--0--0--0--0--0--0--0--0--|--0--0--0--0--0--0--0--0--|
--------------------------|--------------------------|


    E  E  E  E  E  E  E  E     E  E  E  E  E  E  E  E   
|---3--3--3--3--3--3--3--3--|--3--3--3--3--3--3--3--3--|
|---4--4--4--4--4--4--4--4--|--3--3--3--3--3--3--3--3--|
|*--5--5--5--5--5--5--5--5--|--4--4--4--4--4--4--4--4--|
|*--------------------------|--------------------------|
|---------------------------|--------------------------|
|---------------------------|--------------------------|


   E   E   E   E   E   E   E   E     E  E  E  E  E  E  E  E     
---8---8---8---8---8---8---8---8--|--3--3--3--3--3--3--3--3---||
---9---9---9---9---9---9---9---9--|--4--4--4--4--3--3--3--3---||
--10--10--10--10--10--10--10--10--|--5--5--5--5--4--4--4--4--*||
----------------------------------|--------------------------*||
----------------------------------|---------------------------||
----------------------------------|---------------------------||


  E  E  E  E  E  E  E  E     E  E  E  E  E  E  E  E    
--3-----3-----3-----3-----|--3-----3-----3-----3------|
--4-----4-----4-----4-----|--3-----3-----3-----3------|
-----5-----5-----5-----5--|-----4-----4-----4-----4s--|
--------------------------|---------------------------|
--------------------------|---------------------------|
--------------------------|---------------------------|


    E    E  E   E  E   E  E   E     E  E  E  E  E  E  E  E   
----8-------8------8------8------|--3-----3-----3-----3-----|
----9-------9------9------9------|--4-----4-----3-----3-----|
--(10)--10-----10-----10-----10--|-----5-----5-----4-----4--|
---------------------------------|--------------------------|
---------------------------------|--------------------------|
---------------------------------|--------------------------|


  E  E  E  E  E  E  E  E     E  E  E  E  E  E  E  E   
--------------1--1--1--1--|--0--0--0--0--0--0--0--0--|
-----------3--3--3--3--3--|--2--2--2--2--2--2--2--2--|
--------3--3--3--3--3--3--|--0--0--0--0--0--0--0--0--|
--3--3--3--3--3--3--3--3--|--2--2--2--2--2--2--2--2--|
--1--1--1--1--1--1--1--1--|--0--0--0--0--0--0--0--0--|
--------------------------|--------------------------|


  E  E  E  E  E  E  E  E       E  E  E  E  E  E  E  E   
--0--0--0--0--0--0--0--0--||---3--3--3--3--3--3--3--3--|
--2--2--2--2--2--2--2--2--||---4--4--4--4--4--4--4--4--|
--0--0--0--0--0--0--0--0--||*--5--5--5--5--5--5--5--5--|
--2--2--2--2--2--2--2--2--||*--------------------------|
--0--0--0--0--0--0--0--0--||---------------------------|
--------------------------||---------------------------|


  E  E  E  E  E  E  E  E      E   E   E   E   E   E   E   E   
--3--3--3--3--3--3--3--3--|---8---8---8---8---8---8---8---8--|
--3--3--3--3--3--3--3--3--|---9---9---9---9---9---9---9---9--|
--4--4--4--4--4--4--4--4--|--10--10--10--10--10--10--10--10--|
--------------------------|----------------------------------|
--------------------------|----------------------------------|
--------------------------|----------------------------------|


  E  E  E  E  E  E  E  E        H          E  E  E  E   
--3--3--3--3--3--3--3--3---||--------------------------|
--4--4--4--4--3--3--3--3---||---6br--------L--4--------|
--5--5--5--5--4--4--4--4--*||*-------------------5--3--|
--------------------------*||*-------------------------|
---------------------------||--------------------------|
---------------------------||--------------------------|


  H          E  E  E  E     W                    W                   
-------------------------|--3~----------------|--L-----------------||
--6br--------L--4--------|--4~----------------|--L-----------------||
-------------------5--3--|--5~----------------|--L----------------*||
-------------------------|--------------------|-------------------*||
-------------------------|--------------------|--------------------||
-------------------------|--------------------|--------------------||


                        E  E  E  E  E  E  E  E     E  E  E  E  E  E  E  E    
-------------------||---3-----3-----3-----3-----|--3-----3-----3-----3------|
-------------------||---4-----4-----4-----4-----|--3-----3-----3-----3------|
-------------------||*-----5-----5-----5-----5--|-----4-----4-----4-----4s--|
-------------------||*--------------------------|---------------------------|
-------------------||---------------------------|---------------------------|
-------------------||---------------------------|---------------------------|


    E    E  E   E  E   E  E   E     E  E  E  E  E  E  E  E     
----8-------8------8------8------|--3-----3-----3-----3------||
----9-------9------9------9------|--4-----4-----3-----3------||
--(10)--10-----10-----10-----10--|-----5-----5-----4-----4--*||
---------------------------------|--------------------------*||
---------------------------------|---------------------------||
---------------------------------|---------------------------||


  E  E  E  E  E  E  E  E     E  E  E  E  E  E  E  E   
--------------1--1--1--1--|--0--0--0--0--0--0--0--0--|
-----------3--3--3--3--3--|--2--2--2--2--2--2--2--2--|
--------3--3--3--3--3--3--|--0--0--0--0--0--0--0--0--|
--3--3--3--3--3--3--3--3--|--2--2--2--2--2--2--2--2--|
--1--1--1--1--1--1--1--1--|--0--0--0--0--0--0--0--0--|
--------------------------|--------------------------|


    E  E  E  E  E  E  E  E     E  E  E  E  E  E  E  E   
|---3--3--3--3--3--3--3--3--|--3--3--3--3--3--3--3--3--|
|---4--4--4--4--4--4--4--4--|--3--3--3--3--3--3--3--3--|
|*--5--5--5--5--5--5--5--5--|--4--4--4--4--4--4--4--4--|
|*--------------------------|--------------------------|
|---------------------------|--------------------------|
|---------------------------|--------------------------|


   E   E   E   E   E   E   E   E     E  E  E  E  E  E  E  E     
---8---8---8---8---8---8---8---8--|--3--3--3--3-----3---------||
---9---9---9---9---9---9---9---9--|--4--4--4--4-----3---------||
--10--10--10--10--10--10--10--10--|--5--5--5--5-----4--------*||
----------------------------------|--------------------------*||
----------------------------------|---------------------------||
----------------------------------|---------------------------||


   H          E  E  E  E     H          E  E  E  E     W                  
--------------------------|-------------------------|--------------------|
---6br--------L--4--------|--6br--------L--4--------|--------------------|
*-------------------5--3--|-------------------5--3--|--5~----------------|
*-------------------------|-------------------------|--------------------|
--------------------------|-------------------------|--------------------|
--------------------------|-------------------------|--------------------|


  W                 3x  W                    W                 
--L-----------------||--------------------|-------------------|
--L-----------------||--------------------|-------------------|
--L----------------*||--5~----------------|--L----------------|
-------------------*||--------------------|-------------------|
--------------------||--------------------|-------------------|
--------------------||--------------------|-------------------|


     |------3-----|   |--3--|   |--3--|   
     H         E  E   E  E  E   E  E  E   
-----------------------------------------|
-----------------------------------------|
--8g10~--------L--8--10--L--8---------8--|
-------------------------------10--L-----|
-----------------------------------------|
-----------------------------------------|


   |------3-----|   |---3--|   |--3--|                        
   H         E  E   Q      E   E  E  E      W                 
----------------------------------------|--------------------|
----------------------------------------|--------------------|
--10b--------L--L--10br----8------------|--------------------|
------------------------------10--L--8--|--10----------------|
----------------------------------------|--------------------|
----------------------------------------|--------------------|


     |-----3----|    |---3--|  |---3--|      3             3             
     H          Q    E  E   E  E  E   E      H.            H.            
-----------------------------------------|------------------------------|
-----------------------------------------|------------------------------|
--8g10b~--------L----8--L---L--L--L---L--|---8------------10------------|
---------------------------10--8-----10--|--10------------12------------|
-----------------------------------------|------------------------------|
-----------------------------------------|------------------------------|


  W                   W                  
-------------------|-------------------||
-------------------|-------------------||
--7----------------|--L----------------||
--8----------------|--L----------------||
-------------------|-------------------||
-------------------|-------------------||




John- overdub

E||-------|-------|-------|-------|-------|-------|-------|-------||--------|
B||-------|-------|-------|-------|-------|-------|-------|-------||--------|
G||-------|-------|-------|-------|-------|-------|-------|-------||*-------|
D||-------|-------|-------|-------|-------|-------|-------|-------||*-------|
A||-------|-------|-------|-------|-------|-------|-------|-------||--------|
E||-------|-------|-------|-------|-------|-------|-------|-------||--------|


                                     chorus ->         Q.     E  E  E  E  E    
-------|-------|--------||-------|-------|-------||----------3--4--3--1--3~--|
-------|-------|--------||-------|-------|-------||--------------------------|
-------|-------|-------*||-------|-------|-------||*-------------------------|
-------|-------|-------*||-------|-------|-------||*-------------------------|
-------|-------|--------||-------|-------|-------||--------------------------|
-------|-------|--------||-------|-------|-------||--------------------------|


  Q.     E  E  E  E  E      E  E  E  E   H         
--L------3--4--3--1--3~--|--L--1------------------|
-------------------------|--------4---------------|
-------------------------|-----------5~--L--------|
-------------------------|------------------------|
-------------------------|------------------------|
-------------------------|------------------------|

      end of chorus                        verse 2            
  S S S S S S S S S S S S S S S  S      S S S S S S S S S S S S S S S S  
------------------------------------||----------------------------------|
--6-4---6-4---6-4---6-4---6-4-------||--6-4---6-4---6-4---6-4---6-4-----|
------5-----5-----5-----5-----5~-L-*||------5-----5-----5-----5-----5-L-|
-----------------------------------*||----------------------------------|
------------------------------------||----------------------------------|
------------------------------------||----------------------------------|


  W                                                          
--3~----------------|-------|-------|-------|-------|-------|
--------------------|-------|-------|-------|-------|-------|
--------------------|-------|-------|-------|-------|-------|
--------------------|-------|-------|-------|-------|-------|
--------------------|-------|-------|-------|-------|-------|
--------------------|-------|-------|-------|-------|-------|

ZACH bass-


G||-------|-------|-------|-------|-------|-------|-------|-------|
D||-------|-------|-------|-------|-------|-------|-------|-------|
A||-------|-------|-------|-------|-------|-------|-------|-------|
E||-------|-------|-------|-------|-------|-------|-------|-------|


    H.           E  E     H.           E  E      H.           Q      
|----------------------|----------------------|---------------------|
|*---------------------|----------------------|---------------------|
|*--3------------3--5--|--2------------2--Ls--|--8------------8s----|
|----------------------|----------------------|---------------------|


  H        H             E  E  E  E  E  E  E  E     E  E  E  E  E  E  E  E   
---------------------||--------------------------|--------------------------|
--------------------*||--------------------------|--------------------------|
--3--------2--------*||--1--1--1--1--1--1--1--1--|--0--0--0--0--0--0--0--0--|
---------------------||--------------------------|--------------------------|


  E  E  E  E  E  E  E  E       E  E  E  E  E  E  E  E   
--------------------------||---------------------------|
--------------------------||*--------------------------|
--0--0--0--0--0--0--0--0--||*--3--L--L--5--6--5--3--5--|
--------------------------||---------------------------|


  E   E   E   E  H           W                   H        H           
--------------------------|-------------------|---------------------||
--------------------------|-------------------|--------------------*||
--2s--L--10~--L--L--------|--8----------------|--6--------5--------*||
--------------------------|-------------------|---------------------||


  H.           E  E     H.           E  E      H.           Q      
---------------------|----------------------|---------------------|
---------------------|----------------------|---------------------|
--3------------3--5--|--2------------2--Ls--|--8------------8s----|
---------------------|----------------------|---------------------|


  H        H           E  E  E  E  E  E  E  E     E  E  E  E  E  E  E  E   
--------------------|--------------------------|--------------------------|
--------------------|--------------------------|--------------------------|
--3--------2--------|--1--1--1--1--1--1--1--1--|--0--0--0--0--0--0--0--0--|
--------------------|--------------------------|--------------------------|


  E  E  E  E  E  E  E  E       E  E  E  E  E  E  E  E   
--------------------------||---------------------------|
--------------------------||*--------------------------|
--0--0--0--0--0--0--0--0--||*--3--L--L--5--6--5--3--5--|
--------------------------||---------------------------|


  E   E   E   E  H           W                   H        H           
--------------------------|-------------------|---------------------||
--------------------------|-------------------|--------------------*||
--2s--L--10~--L--L--------|--8----------------|--6--------5--------*||
--------------------------|-------------------|---------------------||


   E  E  E  E  E  E  E  E     E  E  E  E  E  E  E  E     E   E  Q    H         
---------------------------|--------------------------|-----------------------|
*--------------------------|--------------------------|-----------------------|
*--8--8--8--8--8--8--8--8--|--8--8--8--8--8--8--8--8--|--3\--L--L-------------|
---------------------------|--------------------------|-----------------------|


  H.            Q                   H.           E  E     H.           E  E    
----------------------||-------||----------------------|----------------------|
---------------------*||-------||*---------------------|----------------------|
--3\-----------------*||-------||*--3------------3--5--|--2------------2--Ls--|
----------------------||-------||----------------------|----------------------|


  H.           Q        H        H             E  E  E  E  E  E  E  E   
---------------------|---------------------||--------------------------|
---------------------|--------------------*||--------------------------|
--8------------8s----|--3--------2--------*||--1--1--1--1--1--1--1--1--|
---------------------|---------------------||--------------------------|


  E  E  E  E  E  E  E  E       E  E  E  E  E  E  E  E   
--------------------------||---------------------------|
--------------------------||*--------------------------|
--0--0--0--0--0--0--0--0--||*--3--L--L--5--6--5--3--5--|
--------------------------||---------------------------|


  E   E   E   E  H           W                   H        H           
--------------------------|-------------------|---------------------||
--------------------------|-------------------|--------------------*||
--2s--L--10~--L--L--------|--8----------------|--6-----------------*||
--------------------------|-------------------|---------------------||


   E  E  E  E  E  E  E  E     E  E  E  E  E  E  E  E     E   E  Q    H         
---------------------------|--------------------------|-----------------------|
*--------------------------|--------------------------|-----------------------|
*--8--8--8--8--8--8--8--8--|--8--8--8--8--8--8--8--8--|--3\--L--L-------------|
---------------------------|--------------------------|-----------------------|


                                                           |--3--|          
  H.            Q     3x  H         H            H         Q     E   Q      
----------------------||----------------------|----------------------------|
---------------------*||----------------------|----------------------------|
--3\-----------------*||--3~--------3~--------|--3~--------3~----x~--3~----|
----------------------||----------------------|----------------------------|


  3      |--3-|  |--3--|  |--3--|     3      |--3-|  |--3--|  |--3--|   
  Q.     Q    E  E  E  E  E  E  E     Q.     Q    E  E  E  E  E  E  E   
-----------------------------------|-----------------------------------|
-----------------------------------|-----------------------------------|
--8------L----6--8--L--6--8--L--6--|--8------L----6--8--L--6--8--L--6--|
-----------------------------------|-----------------------------------|


                                          |-----3-----|  |--3-|  |--3-|   
  W                   W                   H        E  E  Q    E  Q    E   
-------------------|-------------------|---------------------------------|
-------------------|-------------------|---------------------------------|
--3----------------|--3----------------|--3--------L--1--3----1--3----1--|
-------------------|-------------------|---------------------------------|


  W                                      
-------------------|-------------------||
-------------------|-------------------||
--3----------------|-------------------||
-------------------|-------------------||


Tap to rate this tab
 
# A B C D E F G H I J K L M N O P Q R S T U V W X Y Z