Song name
# A B C D E F G H I J K L M N O P Q R S T U V W X Y Z

Postal Service - Against All Odds tab

"Against All Odds"
by The Postal Service

*Standard Tuning

Note: This is my first tab, so please bear with me! 
I've been an active user of Ultimate-Guitar and I 
figured it was about time I contributed. 
This is a great song and no tabs had been made, 
so I figured, why not?


Intro x2 (Let Ring)

e|--------------------------------|
b|--------------------------------|
g|--3---5---6---8---11------------|
d|--3---5---6---8---11------6---8-|
a|--1---3---4---6----9------6---8-|
E|--x---x---x---x----x------4---6-|

"How can I just let you walk away..." (0:00 & 0:24)

e|---------------|
b|---------------|
g|--11-----------|
d|--11-----6-----|
a|---9-----6-----|
E|---x-----4-----|

"You're the only one who really knew me at all..." (0:15 & 0:38)



Chorus 1

e|------------------------|
b|------------------------|
g|--3----6-----11---------|
d|--3----6-----11------6--|
a|--1----4------9------6--|
E|--x----x------x------4--|

"So take a look at me now..." (0:45)



Verse 1 (Staccato)

e|--------------------------------------------------------------------|
b|--------------------------------------------------------------------|
g|-3-3-333-3--5--6-6-666-6--8-8--11-11-111111-11--11------------------|
d|-3-3-333-3--5--6-6-666-6--8-8--11-11-111111-11--11---6-6-666-6--8-8-|
a|-1-1-111-1--3--4-4-444-4--6-6---9--9--9-9-9--9---9---6-6-666-6--8-8-|
E|-x-x-xxx-x--x--x-x-xxx-x--x-x---x--x--x-x-x--x---x---4-4-444-4--6-6-|

"I wish I could just make you turn around, turn around and see me cry..." (1:22)

|-------------------------------------|
|-------------------------------------|
|-11-11-111111-11--11-----------------|
|-11-11-111111-11--11--6-6-666-6--6-6-|
|--9--9--9-9-9--9---9--6-6-666-6--6-6-|
|--x--x--x-x-x--x---x--4-4-444-4--4-4-|

"You're the only one who really knew me at all..." (1:37)



Chorus 2

e|---------------------------------------------------------|
b|---------------------------------------------------------|
g|--3-3-33---6-6-66--6-6-6----11-11-1111-11---8888---------|
d|--3-3-33---6-6-66--6-6-6----11-11-1111-11---8888--66666--|
a|--1-1-11---4-4-44--4-4-4----9---9--9-9--9---6666--66666--|
E|--x-x-xx---x-x-xx--x-x-x----x---x--x-x--x---xxxx--44444--|

"So take a look at me now..." (1:45)

e|------------------------------------------------------|
b|------------------------------------------------------|
g|--3-3-33---6-6-66--6-6-----11-11-1111---11---8888-----|
d|--3-3-33---6-6-66--6-6-----11-11-1111---11---8888--6--|
a|--1-1-11---4-4-44--4-4-----9---9--9-9----9---6666--6--|
E|--x-x-xx---x-x-xx--x-x-----x---x--x-x----x---xxxx--4--|

"Take a look at me now..." (1:59)

e|------------------------------------------------------|
b|------------------------------------------------------|
g|--3-3-33---6-6-66--6-6-----11-11-1111---11---8888-----|
d|--3-3-33---6-6-66--6-6-----11-11-1111---11---8888--6--|
a|--1-1-11---4-4-44--4-4-----9---9--9-9----9---6666--6--|
E|--x-x-xx---x-x-xx--x-x-----x---x--x-x----x---xxxx--4--|
                                                     *
"Take a look at me now..." (2:13)
*Let Ring



Instrumental (2:36)



*This tab is dedicated to my boys Ronny and Adam.
Tap to rate this tab
# A B C D E F G H I J K L M N O P Q R S T U V W X Y Z