Song name
# A B C D E F G H I J K L M N O P Q R S T U V W X Y Z

Pot - Panaginip tab

-------------------------------------------------------------------------------
			     PANAGINIP - Gloc 9
-------------------------------------------------------------------------------
Tabbed by: serial
 
Tuning: Standard
Intro:
e|---------3---------5---3-----0-----0-------0-------0------0------3--2h0h3----|
B|---------3--------------------0-----0-------1-------1------1-----------------|
G|------4------4--------------0-----0-----------------------------2------------|
D|---5---------4-------------2-----0-------2-------0------0------0-------------|
A|---------------------------------------3--------2------0---------------------|
E|-----------------------------------------------------------------------------|
Tap to rate this tab
 
# A B C D E F G H I J K L M N O P Q R S T U V W X Y Z