Song name
# A B C D E F G H I J K L M N O P Q R S T U V W X Y Z

Power Quest - Soulfire tab

|--------------------------------|
|--------------------------------|
|-----------5------------5-------|  Repeat this a few times.
|--7--------3----7-------3---5-5-|
|--5---6--5------5---8-------3-3-|
|------8--3----------6-----------|

|-----------------------------------------------|
|-----------------------------------------------|
|-----------------------------------------------| Play this twice, then it goes into the verse.
|----5-------------------------5----------------|
|--7-3---3-3-3-3-3-3-3-3-----7-3---3-3-3-3-3-5--|
|--5-----1-1-1-1-1-1-1-1-----5-----1-1-1-1-1-3--|
Tap to rate this tab
# A B C D E F G H I J K L M N O P Q R S T U V W X Y Z