Guitaretab - guitar tabs
Song name
# A B C D E F G H I J K L M N O P Q R S T U V W X Y Z

Presidents Of The Usa - Kitty Acoustic tab

Artist: Presidents Of The Usa
Song: Kitty (Acoustic)

Tabbed By Mr. Fuko (angrygnome2000@yahoo.com)
All my tabs are written for single acoustic guitar. Hopefully this can help the solo 
cover acts out there!  Email me if you like.

Updated 10.26.07

%= rest
/= slide

Hereís a more accurate tab of Kitty by potusa.

Drop d tuning and tuned a half step down: Db Ab Db Gb Bb Eb

Chorus / intro / outro (on the outro there are some pauses and rhythm changes but it's 
the same, you'll figure it out.)

e------------------------------------------------------------|
B-----------------------------------------------------------x|
G-7-7-7-7-7-----------------%-5-5-5-5-5----------------------|
D-7-7-7-7-7-3-3-3/5-5-5-5-5-%-5-5-5-5-5-3-3-3/5-5-5-5-5-%----|
A-5-5-5-5-5-3-3-3/5-5-5-5-5-%-3-3-3-3-3-3-3-3/5-5-5-5-5-%---x|
D-----------3-3-3/5-5-5-5-5-------------3-3-3/5-5-5-5-5-%----|

Verse
p.m. throughout
e------------------------------------------------|
B-----------------------------------------------x|
G------------------------------------------------|
D------------------------------------------------|
A---5-------------------5-----------------------x|
D-0---0-0--3-3-3-3-3-3---------------------------|

[ Tab from: http://www.guitaretab.com/p/presidents-of-the-usa/97874.html ]
Change up in the verse (2nd verse he scrathes the strings and adds a pause)
e---------------------------|-----------------------|
B--------------------------x|-----------------------|
G---------------------------|-----------------------|
D---------------------------|-----------------------|
A----------------------5---x|-----------------------|
D-0-0--0-0--3-3-3-3-3-3-----|---0-------------------|

Lyrics:

Pre-Verse
Meow meow meow meow meow meow.

Meow

Verse 1
Little bag of bones been out all night
Little bag of bones been out all night
Canít help(? Hard to hear but itís close) Scrathin at the screen door
Canít help(? Hard to hear but itís close) Scrathin at the screen door
Little bag of bones been out all night
He needs some pettin and lovin on his head
He needs some pettin and lovin on his rain soaked hide
Heís circling round my ankle
Heís circling round my ankle
He needs some pettin and lovin on his hide
Hey kitty wonít you come inside

Chorus
Kitty at my foot and I wanna touch it
Kitty at my foot and I wanna touch it
Kitty at my foot and I wanna touch it
Kitty at my foot and I wanna touch it
Kitty at my foot and I wanna touch it
Kitty at my foot and I wanna touch it
Kitty at my foot and I wanna touch it
Kitty at my foot and I want to touch it

Pre-Verse
Meow meow meow meow meow meow.

Meow

Verse2
Pussy purrin and looking so satisfied
Pussy purrin and looking so satisfied
Lost in his little yellow round diet
Lost in his little yellow round diet
Pussy purrin and looking so satisfied
Kitty rear up and scratch me through my jeans
Kitty rear up and scratch me through my jeans
Fuck you kitty youíre gonna spend the night
Fuck you kitty youíre gonna spend the night
Fuck you kitty youíre gonna spend the night
Outside!

Bridge

The bridge you can get on your own itís a bunch of kittyís and touch itís


Thatís pretty much it.
Related for Kitty Acoustic tab