Song name
# A B C D E F G H I J K L M N O P Q R S T U V W X Y Z

Pride And Glory - Shine On tab

Help us improve GuitareTab! Take a short survey!
Author/Artist: Pride & Glory
Title: Shine On
Album: Pride & Glory
Transcribed by: Thom Brannan

From: www.sdmfworldwide,com

This is not my own work, BUT i would like to see that this Tab is on this site because 
such a fantastic and underrated song


   h       p           p
-----------------------------------|
-----------------------------------|
------0---3-0---0-----3-0---0------|
--3-5---5-----5-----5-----5---5-4--|
-----------------------------------|
-----------------------------------|

         p                   p
--------------------------------------------------|
-------------------------------------1------------|
----0---3-0---0-----3-0---0--------3---3-----0----|
--3---3-----3-----3-----3---3-0----------------0--|
---------------------------------3----------------|
------------------------------------------1-------|

            h
----------------------------|
----------------------------|
----------------------------|
------0--------------0-5-0--|
----3---3------1-3/5--------|
--3--------1-3--------------|

   fb  fb
|-----------------------------------------------------------------|
|-----------------------------------------------------------------|
|--17-17----------------------------------------------------------|
|-----------------------------------------------------------------|
|-----------------------------------------------------------------|
|-----------------------------------------------------------------|
|
|   h       p              p   p           p          p
|------------------6----------------------------------------------|
|--------------------6--------------------------------------------|
|------0---3-0---0-----5--3-0-5-0-----0---3-0---0----3-0---0------|
|--3-5---5-----5-------------------3----3-----3----3-----3---3-0--|
|-----------------------------------------------------------------|
|-----------------------------------------------------------------|

   fb      fb                          full       r
|-----------------------------------------------------------------|
|--18--15-18------------------------------------------------------|
|--------------------------------------5--------------3-----------|
|-----------------------------------------------------------------|
|-----------------------------------------------------------------|
|-----------------------------------------------------------------|
|
|                                       h     p
|----------------------------------------------------------0------|
|------1---------------------------------------------6-5-5-----4--|
|----3---3------0--------0------0---0------0-3-0---0/7-6-----5----|
|-----------------0----3---3-----------3-5-------5----------------|
|--3--------------------------------------------------------------|
|-------------1------3--------3---3-------------------------------|


|--------------------------------|
|--------------------------------|
|--0-----------------------------|
|--------------------------------|
|--------------------------------|
|--------------------------------|
|
|         p      h
|--------------------------------|
|---------------------0-3-5-0----|
|----0---3-0--------3---------0--|
|--3---5-----5--3-5--------------|
|--------------------------------|
|--------------------------------|


-----------------------------|
-------1---------------------|
-----3---3------0------------|
-------------------3---------|
--3----------------0---------|
-------------1-----3----0-0--|


-------------------------------------|
-------------------------------------|
-------------------------------------|
--6--5--3------------6--5--3---------|
--4--3--1---3--3--5--4--3--1---3--5--|
------------1--1--3------------1--3--|


--------------------------------------------------------|
--------------------------------------------------------|
--------------------------------------------------------|
--------------------------------------------------------|
---X-X--X-X-X--X-X-X---X-X-6--X-X--X-X-X--X-X-X--X-X-3--|
---X-X--X-X-X--X-X-X---X-X-4--X-X--X-X-X--X-X-X--X-X-1--|


your prayers...
--------------------------------|
--------------------------------|
--------------5--5-5-3----------|
--3-5-5-3-5-3----------5-3------|
---------------------------5-3--|
--------------------------------|

Gm7           C            Cm7
shine on,         so i can find my way on back to you


---------------------------------|
----------------------------3----|
--------------------------3---3--|
--------------------------3------|
---------------------------------|
--1-3-3-1-3-3-1-3-3-1-3-3--------|

Gm7           C
shine on,         so i can

F         E          Eb5     Dm7
shine, oh yeah...Lord,       my lovin light on

(before solo)
G G G     G G G      G G G
you...oh baby

-------------------------------------------------------------------------|
-------------------------------------------------------------------------|
-------------------------------------------------------------------------|
-------------------------------------------------------------------------|
----------------------------------------1-3-3-1-3-3-1-3-3-1-3-3-1-3-1-3--|
--1-3-3-1-3-3-1-3-3-1-3-3-1-3-3-1-3-1-3----------------------------------|


                                1/2b       fb
|-------------------------------------------------------------|
|-------------------------------------------------------------|
|------------------------------------------7------------------|
|--7----------------------------7-----------------------------|
|--7----------------------------7-----------------------------|
|-------------------------------------------------------------|
|
|                           ah
|-----------------------------------------------------------|
|-----------------------------------------------------------|
|-----------------------------------------------------------|
|--5----------5-----------5-----5----------8----------------|
|--3----------3-----------3-5---3----------6---5-3-5-3------|
|----5-3-5--5---5-3-5--5----------5-3-5--5-------------5-3--|


    h     p    p    h    p    p   h    h   h   h
-----------------------------------------------------------------|
-----------------------------------------------------------------|
------------------------9-0-11-0-9-11-8-9-7-8-6--8--7--6--7-8-0--|
-----------------------------------------------------------------|
--------10-0-12-0-10-12------------------------------------------|
--10-12----------------------------------------------------------|


  fb  fb                                                       fb     fb
-------------------------------------------------------------------------|
----8----8--------------------------------------------------------20-----|
--7---7----7-----------17-----------17----------17-------17-19-19----19--|
-----------------------17--19-17----17-19-17----17-19-19-----------------|
------------------/19------------19----------19--------------------------|
-------------------------------------------------------------------------|


----------17-------------------------------------------------5-0--|
--20---------20-------------------------------20------------------|
-----19---------19----19\---19----17------19-----19----(19)\------|
-------------------------------------19---------------------------|
------------------------------------------------------------------|
------------------------------------------------------------------|


     p   p   p          p  p    p          p  p    p
|--10-0-7-0-7-0-------12-10-0------------12-10-0------------12-10----------12-10----------12-10--|
|---------------10-12---------10-0-10-12---------10-0-10-12-------12-10-12-------12-10-12--------|
|------------------------------------------------------------------------------------------------|
|------------------------------------------------------------------------------------------------|
|------------------------------------------------------------------------------------------------|
|------------------------------------------------------------------------------------------------|
|
|
|------------------------------------------------------------------------------------------------|
|------------------------------------------------------------------------------------------------|
|------------------------------------------------------------------------------------------------|
|--7---------------------------------7-------------------------------------7----9----------------|
|--5---------------------------------5-------------------------------------5----7----------------|
|--------7---5--7---------------7----------7------5-----7-----------7----------------------------|


                                                    fb
|-----------12-10----------12-10------------------------------------------|
|--12-10-12-------12-10-12-------12-10-12-10-12-10------------------------|
|--------------------------------------------------14------(14)\----X/----|
|-------------------------------------------------------------------------|
|-------------------------------------------------------------------------|
|-------------------------------------------------------------------------|
|
|
|-------------------------------------------------------------------------|
|-------------------------------------------------------------------------|
|-------------------------------------------------------------------------|
|--7----------------------------------10----------------------------------|
|--5-----------------------------------8---------------7--5--7--5---------|
|---------7----5--------7--------7----------------------------------7--5--|

    p   p   p   p   p   p   p   p     fb
|--7-5-----7-5-----7-5-----7-5------------------------|
|------7-5-----7-5-----7-5-----7-5----------------7\--|
|----------------------------------7--7-----------7\--|
|-----------------------------------------------------|
|-----------------------------------------------------|
|-----------------------------------------------------|
|
|
|-----------------------------------------------------|
|-----------------------------------------------------|
|-----------------------------------------------------|
|--7----------------------7-------------------7----9--|
|--5----------------------5-------------------5----7--|
|-----7----5---7------7-------7---5---7---7-----------|


    1/2        1/2 T
|--------------------------------------------|
|---5----------(5)17---------------/X\-------|
|--------------------------------X\-----/X\--|
|--------------------------------------------|
|--------------------------------------------|
|--------------------------------------------|
|
|
|--------------------------------------------|
|--------------------------------------------|
|--------------------------------------------|
|--------------------------------------------|
|--7-----8-------9-------10-------11----10\--|
|----9-9---10-10---11-11----12-12----13------|


outro
  1/2                         tr      1/2                       1/2
--------------------------------------------------------------------|
--------------------------------------------------------------------|
----------------------------5-3-(4)---------------------------------|
--5--(5)\3-5-3--------------5-3------5--(5)\3-5-3-------------------|
--3--(3)\1-3-1-3-5----3-5------------3--(3)\1-3-1-3-5----3-5---5-3--|
---------------1-3--0-1-3-0-----------------------1-3--0-1-3-0-3-1--|


1/2                         tr      1/2                       1/2
--------------------------------------------------------------------|
--------------------------------------------------------------------|
----------------------------5-3-(4)---------------------------------|
--5--(5)\3-5-3--------------5-3------5--(5)\3-5-3-------------------|
--3--(3)\1-3-1-3-5----3-5------------3--(3)\1-3-1-3-5----3-5---5-3--|
---------------1-3--0-1-3-0-----------------------1-3--0-1-3-0-3-1--|

  fb  fb        1/2   1/2              h
----------------------------------------------------------------|
--3--3--------0-5----5------3-----------------------------------|
--5--5----------------------------5---3-4----(4)--(4)/16-16-16--|
----------------------------------------------------------------|
----------------------------------------------------------------|
----------------------------------------------------------------|


  fb  fb              fb   fb  1/2   1/2  1/2  1/2       h             fb
---------------------------------------------------------------------------|
--15-15-----15--15-15-15-------17---------17---17---15-----------------18--|
--17-17---------------17---17--------------------------16-17---16----------|
---------------------------------------------------------------------------|
---------------------------------------------------------------------------|
---------------------------------------------------------------------------|


---------------------------------------------------------------------------------15-18-15--------|
---------------------------------------------------------------15-18-------15-18----------18-15--|
---------------------------------15-17-------15-17-------15-17-------15-17-----------------------|
---------------------15-17-15-17-------15-17-------15-17-----------------------------------------|
----/15-15--17-15-17-----------------------------------------------------------------------------|
-X\----------------------------------------------------------------------------------------------|


                                    fb              fb                  fb
--18-15---------------------------------------------15------15-------15---------------15--------|
--------18-15----15-18-15------------------------15------18----18-18----18---18-(18)\----18-15--|
--------------17----------17-15----17---17----15------------------------------------------------|
--------------------------------17---------17---------------------------------------------------|
------------------------------------------------------------------------------------------------|
------------------------------------------------------------------------------------------------|


--19--------------------------------------------------------------------------------------|
-----17-15----20-17-15----------15-------------------------------1-----------------15-----|
-----------16----------16----------16----------------------------------17----15-17----17--|
--------------------------19-17-------19-17-------19-17----------17-19----17--------------|
--------------------------------------------19-17-------19-17-19--------------------------|
------------------------------------------------------------------------------------------|


                                               fb
--------------15-18-15-15-15----15-20-18-15--------20-18-15-18-15-17-15-15--|
--18-15----15----------------18-------------18-18---------------------------|
--------17------------------------------------------------------------------|
----------------------------------------------------------------------------|
----------------------------------------------------------------------------|
----------------------------------------------------------------------------|


                         1/2
--20-15-18-15-17-15-15---20---18--|
----------------------------------|
----------------------------------|
----------------------------------|
----------------------------------|
----------------------------------|


                            fb        1/2   1/2     fb         1/2   h   fb
1/2
--15-18-15-17-15-15-15----------------17----17---15-----------------------------|
-----------------------18--(18)--(18)---------------18---18-15--------------17--|
---------------------------------------------------------------17--15-17-17-----|
--------------------------------------------------------------------------------|
--------------------------------------------------------------------------------|
--------------------------------------------------------------------------------|


                                           fb            fb      p      fb
---------17----18----20----18-----17------------15---------------------------------|
------15----15----15----15----15-----15-18-18------18-15---------------------------|
---------------------------------------------------------17--(17)-15-17-17--(17)\--|
-----------------------------------------------------------------------------------|
-----------------------------------------------------------------------------------|
-----------------------------------------------------------------------------------|


              fb              1/2
-----15--------------15-------------------------------------|
--15----18-15-----15----18-15-17----15--15------------------|
--------------17---------------------------18-17-15-17--15--|
------------------------------------------------------------|
------------------------------------------------------------|
------------------------------------------------------------|


   1/2               fb   1/2   fb       fb            fb
----------------------------------------------15-----------15--------|
---17---15--17-17-15------17---(17)--15--20------18-15-18-----18-15--|
---------------------17----------------------------------------------|
---------------------------------------------------------------------|
---------------------------------------------------------------------|
---------------------------------------------------------------------|


  fb            fb           fb           fb
------15-----------15-----------15-----------15------------|
--18-----18-15-18-----18-15-18-----18-15-18-----18-15-18\--|
-----------------------------------------------------------|
-----------------------------------------------------------|
-----------------------------------------------------------|
-----------------------------------------------------------|


--18-18-20-18-15-18-18-20-18-15-18-18-20-18-15-18-18-20-18-15-18-18-20-18-15-18-18-20-18-15--|
---------------------------------------------------------------------------------------------|
---------------------------------------------------------------------------------------------|
---------------------------------------------------------------------------------------------|
---------------------------------------------------------------------------------------------|
---------------------------------------------------------------------------------------------|

    tr 1/2  1/2
--18-18-20-18-15-18-18-20-18-15-18-18-20-18-15-18-18-20-18-15-18-18-20-20-20-----20----20---20--|
-----------------------------------------------------------------------------19-------------20--|
------------------------------------------------------------------------------------------------|
------------------------------------------------------------------------------------------------|
------------------------------------------------------------------------------------------------|
------------------------------------------------------------------------------------------------|


          1/2        1/2     p          1/2
---(20)-------------------------------------|
---(20)---19---19-19--------------------17--|
---------------------17--(17)-15-17-15------|
--------------------------------------------|
--------------------------------------------|
--------------------------------------------|


---------------------15-20-15----------18-15----15-20-18-15--|
--(17)---15-17-15-------------18-18-15-------18--------------|
------------------17-----------------------------------------|
-------------------------------------------------------------|
-------------------------------------------------------------|
-------------------------------------------------------------|


-----15--------------------------------------------------------------------------------------|
--15----18-15--------------------------------------------------------------------------------|
--------------17-15----15-18-15----------15-18-18-15----------15-18-18-15----------15-18-18--|
--------------------17----------17-15-17-------------17-15-17-------------17-15-17-----------|
---------------------------------------------------------------------------------------------|
---------------------------------------------------------------------------------------------|


---------------------------------------------------------------------------------------|
---------------------------------------------------------------------------------------|
--15----------15-18-18-15----------15-18-18-15----------15-18-18-15----------15-18-18--|
-----17-15-17-------------17-15-17-------------17-15-17-------------17-15-17-----------|
---------------------------------------------------------------------------------------|
---------------------------------------------------------------------------------------|


--------------------------------------------------------------------15-----------------|
-----------------------------------------------------------------15----18-15-----------|
--15----------15-18-18-15----------15-18-18-15----------15-18-18-------------17-15-17--|
-----17-15-17-------------17-15-17-------------17-15-16--------------------------------|
---------------------------------------------------------------------------------------|
---------------------------------------------------------------------------------------|


-----15-------------------15-------------------------15-20-18-15----------15-20-18-15--|
--15----18-15----------15----18-15----------18-15-18-------------18-15-18--------------|
--------------17-15-17-------------17-15-17--------------------------------------------|
---------------------------------------------------------------------------------------|
---------------------------------------------------------------------------------------|
---------------------------------------------------------------------------------------|


-----15-------------------------15-20-18-15----------15-20-18-15----------15-20-18-15--|
--15----18-15----------18-15-18-------------18-15-18-------------18-15-18--------------|
--------------17-15-17-----------------------------------------------------------------|
---------------------------------------------------------------------------------------|
---------------------------------------------------------------------------------------|
---------------------------------------------------------------------------------------|


  3/2                         tr     3/2
-----------------------------------------------------------|
-----------------------------------------------------------|
----------------------------5-3-(4)------------------------|
---------5\3----------------5--------5--5-3-5-3------------|
--3--3-1-3\1-3-5------3-5------------3--3-1-3-1-3-5--(5)\--|
-------------1-3--0-0-1-3-0---------------------1-3--(3)\--|
Related for Shine On tab