Song name
# A B C D E F G H I J K L M N O P Q R S T U V W X Y Z

Pride And Glory - Sweet Jesus tab

Highlighted       Show chord diagrams
Band - Pride and Glory
Album - Pride and Glory
Song - Sweet Jesus
Tabbed by - Taylor Wasielewski(Singer/ Guitarist of Cantopulous)

Verse 1

C
Talkin' down the line

G
I nearly lost my mind

F                    F
Nearly lost you babe

C
Think about you child

G
Through my sick and twisted smile

F                      F
I nearly lost you babe

C
Shakin' in my hands

G
I just don't understand

F                     F
I nearly lost ya mama

C
Lovin' just to hate

G
A war that just won't wait

F                     F
I nearly lost ya babe

Chorus

Dm                 C
My eyes have gone blind

Dm                    C
The past I just can't find

Dm
A flower to be saved

C
A flower for your grave

Dm                          C
Mama at times I just don't know

Dm C
Oh sweet Jesus


Where did I go?

Verse 2

C
What it was to be

G
Was kinda clear to see

F                   F
Nearly lost ya babe

C
Ain't no backin' down

G
Caring, Cus I ain't nobody's clown

F                      F
I nearly lost you babe

C
Breakin' down inside

G                    F F
Nearly lost you babe

C
Forever one more time

G
Until the day I die

F                     F
I nearly lost ya babe

Chorus

Dm                C
My eyes have gone blind

Dm                    C
The past I just can't find

Dm
A flower to be saved

C
A flower for your grave

Dm                         C
Mama at times I just don't know

Dm C
Oh sweet Jesus


Where did I go?

Solo

e-|-----------------------------|------------------------------------|------|
B-|-----------------------------|-------------8-8b10-8---------------|------|
G-|-----5-7-7b9v-9r7-5-7-5------|-----5-7-7b9----------7b9r7--5h7p5v-|------|
D-|-5-7--------------------7-7v-|-5-7--------------------------------|------|
A-|-----------------------------|------------------------------------|------|
E-|-----------------------------|------------------------------------|------|


e-----------------------------------------|-8--------------------------------|
B-5h6-5---5v-5h6p5------------------------|---8----------------8-------------|
G-------7----------7-5---7-7b9-9r7-5h7p5v-|-----b9r7-5-5h7-7b9---7b9--9r75h7-|
D-----------------------------------------|----------------------------------|
A-----------------------------------------|----------------------------------|
E-----------------------------------------|----------------------------------|


e-------5-------------|-----------------------------||----------------------|
B-5-6-8---8-----------|-----------------------------||----------------------|
G-----------7b9r7-5vv-|---------------5-7p5h7vv-5vv-||----------------------|
D---------------------|-----------5-7---------------||----------------------|
A---------------------|-----3-5/7-------------------||----------------------|
E---------------------|-3-5-------------------------||----------------------|

Chorus

Chorus

Dm                C
My eyes have gone blind

Dm                    C
The past I just can't find

Dm
A flower to be saved

C
A flower for your grave

Dm                         C
Mama at times I just don't know

Dm C
Oh sweet Jesus


Where did I go?
Tap to rate this tab
# A B C D E F G H I J K L M N O P Q R S T U V W X Y Z