Song name
# A B C D E F G H I J K L M N O P Q R S T U V W X Y Z

Prima Donna - Soul Stripper tab

Hey guys this is the song Soul Stripper by Prima Donna.
It's from the album After Hours.
If someone knows the lyrics of this great song please post them to me.
Thanks. It's my first tab so there could be mistakes. I'm sorry.
http://www.primadonnarocks.com/ - were on tour with Green Day

Intro

|------|
|------|
|------|
|------|
|-7-9--|
|-5-5--|change...listen to the song to get the rhythm

Verse riff (also played during the solo)

|-------------------------------|
|-------------------------------|
|-------------------------------|
|------------7-9--9-11-11-9-7---|
|-7-9--9-11--5-5--7-7---------7-|
|-5-5--7-7----------------------|

same rhythm as intro

Chorus riff

|-------------------------------|
|-------------------------------|
|-------------9-999987--7-------|
|-7--7--------9-999987--7-------|
|-5--5--7--7--7-777765--5--7-9--|
|-------5--5---------------5-5--| listen again for the rhythm

Last part of second and third chorus:

|--------------------------------------------|
|--------------------------------------------|
|----------------------------777-8-9-999999--|
|-7--7---------------------7-777-8-9-999999--|
|-5--5--7--11-111111111111-5-555-6-7-777777--|
|-------5--9--9-9-9-9-9-9--------------------|

End

|--------------------------------------------|
|--------------------------------------------|
|--------------------------------------------|
|------------------------9-999-8-7-77777-----|
|--7-777--6--4-444444----7-777-6-5-55555-----|
|--5-555--4--2-222222------------------------| played two times

|-------|
|-------|
|-------|
|------7|
|-7-9--7|
|-5-5--5|


Please listen to the song again to find the right order of the parts.
I hope you'll enjoy.

Tap to rate this tab
 
# A B C D E F G H I J K L M N O P Q R S T U V W X Y Z