Song name
# A B C D E F G H I J K L M N O P Q R S T U V W X Y Z

Primal Fear - Armageddon tab

Transcribed by B M
	



Gtr I (E A D G B E) - 'Untitled'

    Q=140
   4/4
    Gtr I
       PM|    PM----|    PM|     PM--------|   PM|   PM----|
     E S S  E S S S S  E S S E   S S S S S S E S S E S S S S
||-----------------------------|-----------------------------|
||o----------------------------|-----------------------------|
||--12-----12---------12-----9-|-------------9-----9---------|
||--10-----10---------10-----9-|-------------9-----9---------|
||o----------------------------|-----------------------------|
||-----0-0----0-0-0-0----0-0---|-0-0-0-0-0-0---0-0---0-0-0-0-|


     PM|    PM----|    PM|      PM----|    PM--------|
                                                       |-3-|
   E S S  E S S S S  E S S  E   S S S S  E S S S S S S S S S S S
|-----------------------------|----------------------------------|
|-----------------------------|----------------------------------|
|-12-----12---------12-----11-|---------11-------------7p5p4-----|
|-10-----10---------10------9-|----------9-------------------7p5-|
|-----------------------------|----------------------------------|
|----0-0----0-0-0-0----0-0----|-0-0-0-0----0-0-5-3-2-0-----------|


     PM|    PM----|    PM|     PM--------|   PM|            ~~~
   E S S  E S S S S  E S S E   S S S S S S E S S E   +E    +E
|----------------------------|---------------------------------|
|----------------------------|---------------------------------|
|-12-----12---------12-----9-|-------------9-----7b8r(7)b8r(7)-|
|-10-----10---------10-----9-|-------------9-----7b8r(7)b8r(7)-|
|----------------------------|---------------------------------|
|----0-0----0-0-0-0----0-0---|-0-0-0-0-0-0---0-0---------------|


     PM|    PM----|    PM|            PM----------------|
                                                          |-3-|
   E S S  E S S S S  E S S  E    +E   S S S S S S S S S S S S S S S
|-----------------------------|--------------------------------------||
|-----------------------------|-------------------------------------o||
|-12-----12---------12-----11-|-(11)\---------------------7p5p4------||
|-10-----10---------10------9-|--(9)\---------------------------7p5--||
|-----------------------------|-------0-0-2-2-0-0-3-3-2-2-----------o||
|----0-0----0-0-0-0----0-0----|--------------------------------------||


                                $
                                      PM|   PM----|   PM|
  W          E Q      +E  Q  Q      E S S E S S S S E S S E
|----------|--------------------||--------------------------|
|----------|--------------------||o-------------------------|
|-5--------|---2b2.5--(2)-2--0--||--------------------------|
|-5--------|---2b2.5--(2)-2--0--||--------------------------|
|-3--------|--------------------||o-7-----7---------7-----8-|
|----------|--------------------||----0-0---0-0-0-0---0-0---|


  PM--------|   PM|   PM----|     PM|   PM----|   PM|
  S S S S S S E S S E S S S S   E S S E S S S S E S S E
|-----------------------------|-------------------------|
|-----------------------------|-------------------------|
|-----------------------------|-------------------------|
|-----------------------------|-------------------------|
|-------------8-----6---------|-7-----7---------7-----8-|
|-0-0-0-0-0-0---0-0---0-0-0-0-|---0-0---0-0-0-0---0-0---|


  1.                            2.
  PM------------|       ~~~     PM|
  S S S S S S S S  Q    Q       S S Q      +E  Q  Q
|----------------------------||----------------------|
|---------------------------o||----------------------|
|----------------------------||-----2b2.5--(2)-2--0--|
|-----------------[6]--------||-----2b2.5--(2)-2--0--|
|----------------------[5]--o||----------------------|
|-0-0-0-0-0-0-0-0------------||-0-0------------------|


    PM|   PM----|   PM|     PM--------|   PM|   PM----|
  E S S E S S S S E S S E   S S S S S S E S S E S S S S
|-------------------------|-----------------------------|
|-------------------------|-----------------------------|
|-------------------------|-----------------------------|
|-4-----4---------4-----5-|-------------5-----3---------|
|-------------------------|-----------------------------|
|---2-2---2-2-2-2---2-2---|-2-2-2-2-2-2---2-2---2-2-2-2-|


    PM|   PM----|   PM|
  E S S E S S S S E S S E
|--------------------------|
|--------------------------|
|--------------------------|
|-4-----4---------4-----5--|
|--------------------------|
|---2-2---2-2-2-2---2-2----|


  PM------------|       ~~~
  S S S S S S S S  Q    Q     H.      +E  E   +W
|---------------------------|---------------|--------|
|---------------------------|---------------|--------|
|---------------------------|-2-------(2)-2-|-(2)----|
|-----------------[4]-------|-2-------(2)-3-|-(3)----|
|----------------------[3]--|-0-------(0)-0-|-(0)----|
|-2-2-2-2-2-2-2-2-----------|---------------|--------|


                      PM----------------|
                                          |-3-|
  H.      +E  E   +E  S S S S S S S S S S S S S S S
|---------------|-----------------------------------|
|---------------|-----------------------------------|
|-4-------(4)-4-|-(4)---------------------7p5p4-----|
|-4-------(4)-5-|-(5)---------------------------7p5-|
|-2-------(2)-2-|-(2)-0-0-2-2-0-0-3-3-2-2-----------|
|---------------|-----------------------------------|


     PM|    PM----|    PM|     PM--------|   PM|   PM----|
   E S S  E S S S S  E S S E   S S S S S S E S S E S S S S
|----------------------------|-----------------------------|
|----------------------------|-----------------------------|
|-12-----12---------12-----9-|-------------9-----9---------|
|-10-----10---------10-----9-|-------------9-----9---------|
|----------------------------|-----------------------------|
|----0-0----0-0-0-0----0-0---|-0-0-0-0-0-0---0-0---0-0-0-0-|


     PM|    PM----|    PM|
   E S S  E S S S S  E S S  E
|------------------------------|
|------------------------------|
|-12-----12---------12-----11--|
|-10-----10---------10------9--|
|------------------------------|
|----0-0----0-0-0-0----0-0-----|


  PM----|    PM|              PM|    PM----|    PM|
  S S S S  E S S E E E E    E S S  E S S S S  E S S  E
|------------------------|-----------------------------|
|------------------------|-----------------------------|
|---------11-----9---7---|-12-----12---------12-----11-|
|----------9-----9---7---|-10-----10---------10------9-|
|----------------7---5---|-----------------------------|
|-0-0-0-0----0-0---------|----8-8----8-8-8-8----8-8----|


  PM--------|    PM|
  S S S S S S  E S S a E  E E
|------------------------------|
|------------------------------|
|-------------11---------------|
|--------------9---------------|
|-------------------------6-5--|
|-8-8-8-8-8-8----8-8-xs8\-4-3--|


                            To Coda
                            ~~~~~~~
  +H     +E  E E E   +Q.    E  +H
|------------------|------------------|
|------------------|------------------|
|------------------|------------------|
|--------------4-3-|-(3)--------------|
|-(5)----(5)-3-2-1-|-(1)---[3]-(3)----|
|-(3)----(3)-------|------------------|


                                     D.S. al Coda
     PM|    PM----|    PM|
   E S S  E S S S S  E S S E   E Q      +E  Q  Q
|----------------------------|--------------------|
|----------------------------|--------------------|
|-12-----12---------12-----9-|---2b2.5--(2)-2--0--|
|-10-----10---------10-----9-|---2b2.5--(2)-2--0--|
|----------------------------|--------------------|
|----0-0----0-0-0-0----0-0---|--------------------|


  &
     PM|    PM----|    PM|     PM--------|   PM|   PM----|
   E S S  E S S S S  E S S E   S S S S S S E S S E S S S S
|----------------------------|-----------------------------|
|----------------------------|-----------------------------|
|-12-----12---------12-----9-|-------------9-----9---------|
|-10-----10---------10-----9-|-------------9-----9---------|
|----------------------------|-----------------------------|
|----0-0----0-0-0-0----0-0---|-0-0-0-0-0-0---0-0---0-0-0-0-|


     PM|    PM----|    PM|
   E S S  E S S S S  E S S  E
|------------------------------|
|------------------------------|
|-12-----12---------12-----11--|
|-10-----10---------10------9--|
|------------------------------|
|----0-0----0-0-0-0----0-0-----|


  PM----|    PM|              PM|    PM----|    PM|
  S S S S  E S S E E E E    E S S  E S S S S  E S S  E
|------------------------|-----------------------------|
|------------------------|-----------------------------|
|---------11-----9---7---|-12-----12---------12-----11-|
|----------9-----9---7---|-10-----10---------10------9-|
|----------------7---5---|-----------------------------|
|-0-0-0-0----0-0---------|----8-8----8-8-8-8----8-8----|


  PM--------|    PM|
  S S S S S S  E S S a E  E E
|------------------------------|
|------------------------------|
|-------------11---------------|
|--------------9---------------|
|-------------------------5-4--|
|-8-8-8-8-8-8----8-8-xs8\-3-2--|


                            ~~~~~~~
  +H     +E  E E E   +Q.    E  +H
|------------------|------------------|
|------------------|------------------|
|------------------|------------------|
|--------------4-3-|-(3)--------------|
|-(4)----(4)-3-2-1-|-(1)---[3]-(3)----|
|-(2)----(2)-------|------------------|


                 >
   ~~~~~~~~~~~~~~~~~~
   W            +W
|------------|----------|
|------------|----------|
|------------|----------|
|-[4]--------|-([4])----|
|------------|----------|
|------------|----------|


  W          W
|----------|------|
|----------|------|
|----------|------|
|----------|------|
|----------|------|
|----------|------|


  W          W
|----------|------|
|----------|------|
|----------|------|
|----------|------|
|----------|------|
|----------|------|


    PM|   PM----|   PM|     PM--------|   PM|   PM----|
  E S S E S S S S E S S E   S S S S S S E S S E S S S S
|-------------------------|-----------------------------|
|-------------------------|-----------------------------|
|-------------------------|-----------------------------|
|-------------------------|-----------------------------|
|-7-----7---------7-----8-|-------------8-----6---------|
|---0-0---0-0-0-0---0-0---|-0-0-0-0-0-0---0-0---0-0-0-0-|


    PM|   PM----|   PM|
  E S S E S S S S E S S E
|--------------------------|
|--------------------------|
|--------------------------|
|--------------------------|
|-7-----7---------7-----8--|
|---0-0---0-0-0-0---0-0----|


  PM------------|
  S S S S S S S S Q  Q    W          +W
|-----------------------|----------|--------|
|-----------------------|----------|--------|
|-----------------------|----------|--------|
|--------------------7--|-8--------|-(8)----|
|-----------------6--5--|-6--------|-(6)----|
|-0-0-0-0-0-0-0-0-4-----|----------|--------|


                          PM|   PM----|   PM|
  W          W          E S S E S S S S E S S E
|----------|----------|-------------------------|
|----------|----------|-------------------------|
|----------|----------|-------------------------|
|-7--------|----------|-5-----5---------5-----6-|
|-5--------|-3--------|-------------------------|
|----------|-1--------|---3-3---3-3-3-3---3-3---|


  PM--------|   PM|   PM----|     PM|   PM----|   PM|
  S S S S S S E S S E S S S S   E S S E S S S S E S S E
|-----------------------------|--------------------------|
|-----------------------------|--------------------------|
|-----------------------------|--------------------------|
|-------------6-----4---------|-5-----5---------5-----6--|
|-----------------------------|--------------------------|
|-3-3-3-3-3-3---3-3---3-3-3-3-|---3-3---3-3-3-3---3-3----|


  PM--------|
  S S S S S S E Q  Q    W          +W
|---------------------|----------|--------|
|---------------------|----------|--------|
|---------------------|----------|--------|
|-------------6----7--|-8--------|-(8)----|
|---------------6--5--|-6--------|-(6)----|
|-3-3-3-3-3-3---4-----|----------|--------|


                           D.C. al Fine
  W          W
|----------|----------------------------|
|----------|----------------------------|
|----------|----------------------------|
|-7--------|----------------------------|
|-5--------|-3--------------------------|
|----------|-1--------------------------|


  Fine
  E E H.
|-----------|
|-----------|
|-----------|
|-----------|
|-0-2-------|
|-0-0-------|



Duration Legend
---------------
W - whole; H - half; Q - quarter; E - 8th; S - 16th; T - 32nd; X - 64th; a - acciaccatura
+ - note tied to previous; . - note dotted; .. - note double dotted
Uncapitalized letters represent notes that are staccato (1/2 duration)
Irregular groupings are notated above the duration line
Duration letters will always appear directly above the note/fret number it represents the
duration for.  Duration letters with no fret number below them represent rests.  Multi-
bar rests are notated in the form Wxn, where n is the number of bars to rest for.  Low
melody durations appear below the staff

Tablature Legend
----------------
 h   - hammer-on
 p   - pull-off
 b   - bend
 pb  - pre-bend
 r   - bend release (if no number after the r, then release immediately)
 /\  - slide into or out of (from/to "nowhere")
 s   - legato slide
 S   - shift slide
 - natural harmonic
[n]  - artificial harmonic
n(n) - tapped harmonic
 ~   - vibrato
 tr  - trill
 T   - tap
 TP  - trem. picking
 PM  - palm muting
\n/  - tremolo bar dip; n = amount to dip
 \n  - tremolo bar down
 n/  - tremolo bar up
/n\  - tremolo bar inverted dip
 =   - hold bend; also acts as connecting device for hammers/pulls
 <> - volume swell (louder/softer)
 x   - on rhythm slash represents muted slash
 o   - on rhythm slash represents single note slash

Misc Legend
-----------
 |  - bar
||  - double bar
||o - repeat start
o|| - repeat end
*|  - double bar (ending)
 :  - bar (freetime)
 $  - Segno
 &  - Coda
Tempo markers -  = BPM(8/16=s8/s16), where s8 = swing 8ths, s16 = swing 16ths

Tap to rate this tab
# A B C D E F G H I J K L M N O P Q R S T U V W X Y Z