Song name
# A B C D E F G H I J K L M N O P Q R S T U V W X Y Z

Prime Sth - Pieces tab

-----------------------------------------------------------------------------
			     PIECES - Prime STH
-----------------------------------------------------------------------------
Tabbed by: futuresight
Email: voland24@gmail.com

Tuning: Standard

INTRO
e|--------------------------------------------------------------------------|
B|--------------------------------------------------------------------------|
G|---7---------7---------9---------9---------7-----7------------------------|
D|-----11--------11--------11--------11--------11--7------------------------|
A|-9---------9---------9---------9---------9--------------------------------|
E|--------------------------------------------------------------------------|

INTRO 2
e|----------------------------------------------------------------------|
B|----------------------------------------------------------------------|
G|-----------------------7-7-7-7-6--------------------------------------|(x2)
D|-44-44-4----44-44-4----7-7-7-7-6----9-9-9-9-7-6-4---------------------|
A|-44-44-4----44-44-4----5-5-5-5-4----9-9-9-9-7-6-4---------------------|
E|-22-22-2----22-22-2-----------------7-7-7-7-5-4-2---------------------|

VERSE 1 (not quite sure about this part)
e|--------------------------------------------------------------------------|
B|--------------------------------------------------------------------------|
G|-9------9-------7-7-7-7-7-9-----------------------------------------------|
D|---11-----11----------------11--9-9-9-7-----------------------------------|
A|--------------------------------------------------------------------------|
E|--------------------------------------------------------------------------|

CHORUS (each chord is played 8x)
e|--------------------------------------------------------------------------|
B|--------------------------------------------------------------------------|
G|-7--9----------7--9----------7--9-----------------------------------------|
D|-7--9--4--7----7--9--4--7----7--9-----------------------------------------|
A|-5--7--4--7----5--7--4--7----5--7-----------------------------------------|
E|-------2--5----------2--5-------------------------------------------------|

REPEAT INTRO 2 (1x)

VERSE 2 (1st half is the same as VERSE 1, the second one is here:)
e|----------------------------------------------------------------------|
B|----------------------------------------------------------------------|
G|----------------------------------------------------------------------|
D|-x4-x4--x44-44--44-44-----x99-99-9----x7-77---------------------------|
A|-x4-x4--x44-44--44-44-----x99-99-9----x7-77---------------------------|
E|-x4-x2--x22-22--22-22-----x77-77-7----x5-55---------------------------|

CHORUS 2
e|--------------------------------------------------------------------------|
B|--------------------------------------------------------------------------|
G|-7--9----------7--9----------7--9----------7--9---------------------------|
D|-7--9--4--7----7--9--4--7----7--9--4--7----7--9---------------------------|
A|-5--7--4--7----5--7--4--7----5--7--4--7----5--7---------------------------|
E|-------2--5----------2--5----------2--5-----------------------------------|

SOLO (not quite sure about this part too, but it's quite close)

e|-------------------------------------------55-22-55-22--------------------|
B|-------------------------------------------55-22-55-22--------------------|
G|----8-9-8---------8-9-8---------6-4-2-0-------------------7-5-7-9-7-9-10--|
D|----------9-11----------9-11----------------------------------------------|
A|--------------------------------------------------------------------------|
E|--------------------------------------------------------------------------|

REPEAT CHORUS 2

REPEAT INTRO


This is my first tab ever, please rate!
Tap to rate this tab
 
# A B C D E F G H I J K L M N O P Q R S T U V W X Y Z