Song name
# A B C D E F G H I J K L M N O P Q R S T U V W X Y Z

Primer 55 - Set It Off tab

Band: Primer 55
Song: Set it Off
Tabbed by: Pat Court
E-mail: fafara_rascon@hotmail.com

Tuning - half step and Drop D
*= Harmonic (example 12*  means play the 12th fret harmonic)


Verse
   [Play this part
   4 times, then the
   Harmonic part.]
D#|-----------------|--12*--|
A#|-----------------|--12*--|
F#|-----------------|--12*--|
C#|-----------------|--12*--|
G#|------11------11-|--12*--|
C#|-9-10----10-9----|-------|


chorus. This is the main part of the chorus
your going to have to listen to the cd to see
the different ways on how he plays it. also throw
in the harmonic here and there where needed.
D#|---------------|
A#|---------------|
F#|---------------|
C#|-9-9-9-8-8-8---|
G#|-9-9-9-8-8-8---|
C#|-7-7-7-6-6-6---|

(1:35-2:06) i have no idea what to call this part
D#|---------------|
A#|---------------|
F#|---------------|
C#|-5-6-7-8-7-----|
G#|-5-6-7-8-7-----|
C#|-5-6-7-8-7-----|

i feel like i'm missing something, so just e-mail if i did,
and i'll try to fix it. Sorry if this tab seems poopy.
Tap to rate this tab
 
# A B C D E F G H I J K L M N O P Q R S T U V W X Y Z