Song name
# A B C D E F G H I J K L M N O P Q R S T U V W X Y Z

Project Wyze - Only Time Will Tell tab

Intro:
e|-1----------1----------3----------3--------|
b|---3---2------3---2------3---2------3---2--|
g|-----2----------2----------2----------2----|
d|-------------------------------------------|------|
a|-------------------------------------------|      |
D|-------------------------------------------|      |
                                                X4  |
e|-1----------1----------0----------0--------|      |
b|---3---2------3---2------3---2------3---2--|      |
g|-----2----------2----------2----------2----|------|
d|-------------------------------------------|
a|-------------------------------------------|
D|-------------------------------------------|

Verse 1:
e|-1-------1-------1-------1------------3-------3--------3-------3-------|
b|---3-------3-------3-------3------------3--------3-------3-------3-----|
g|-----2-------2-------2-------2------------2--------2-------2-------2---|
d|-----------------------------------------------------------------------|
a|-----------------------------------------------------------------------|
D|-----------------------------------------------------------------------|
                                   X4
e|-1-------1-------1-------1------------0-------0--------0-------0-------|
b|---3-------3-------3-------3------------3--------3-------3-------3-----|
g|-----2-------2-------2-------2------------2--------2-------2-------2---|
d|-----------------------------------------------------------------------|
a|-----------------------------------------------------------------------|
D|-----------------------------------------------------------------------|

Chorus 1:
e|----------------------------------------------|
b|----------------------------------------------|
g|-------------------------------7~-9~-10~-12~--|
d|-00-------------00----------------------------|X4
a|-00-------------00-------------5~-7~-8~--10~--|
D|-00---7-8-7-5---00---7-8-7-5------------------|


Verse 2:
e|-1-------1-------1-------1------------3-------3--------3-------3-------|
b|---3-------3-------3-------3------------3--------3-------3-------3-----|
g|-----2-------2-------2-------2------------2--------2-------2-------2---|
d|-----------------------------------------------------------------------|
a|-----------------------------------------------------------------------|
D|-----------------------------------------------------------------------|
                                   X4
e|-1-------1-------1-------1------------0-------0--------0-------0-------|
b|---3-------3-------3-------3------------3--------3-------3-------3-----|
g|-----2-------2-------2-------2------------2--------2-------2-------2---|
d|-----------------------------------------------------------------------|
a|-----------------------------------------------------------------------|
D|-----------------------------------------------------------------------|

Chorus 2:
e|----------------------------------------------|
b|----------------------------------------------|
g|-------------------------------7~-9~-10~-12~--|
d|-00-------------00----------------------------|X4
a|-00-------------00-------------5~-7~-8~--10~--|
D|-00---7-8-7-5---00---7-8-7-5------------------|

Bridge 1:
e|-1----------1----------3----------3--------|
b|---3---2------3---2------3---2------3---2--|
g|-----2----------2----------2----------2----|
d|-------------------------------------------|------|
a|-------------------------------------------|      |
D|-------------------------------------------|      |
                                                X4  |
e|-1----------1----------0----------0--------|      |
b|---3---2------3---2------3---2------3---2--|      |
g|-----2----------2----------2----------2----|------|
d|-------------------------------------------|
a|-------------------------------------------|
D|-------------------------------------------|

e|-----------------------------------------------------------|
b|-----------------------------------------------------------|
g|-5--7--10-12----5--7--10-12----5--7--10-12----5--7--10-12--|
d|-----------------------------------------------------------|X4
a|-3--5--8--10----3--5--8--10----3--5--8--10----3--5--8--10--|
D|-----------------------------------------------------------|

Bridge 2:
e|-------------------------------|
b|-------------------------------|
g|-------------------------------|
d|-00-------------00---8-7-8-10--|X4
a|-00-------------00---8-7-8-10--|
D|-00---7-8-7-5---00---8-7-8-10--|

Chorus 3:
e|----------------------------------------------|
b|----------------------------------------------|
g|-------------------------------7~-9~-10~-12~--|
d|-00-------------00----------------------------|X4
a|-00-------------00-------------5~-7~-8~--10~--|
D|-00---7-8-7-5---00---7-8-7-5------------------|
Tap to rate this tab
 
# A B C D E F G H I J K L M N O P Q R S T U V W X Y Z