Prototype - Shine tab

Prototype - Shine

From the 1995 demo "Seed", 
the 1998 EP "Cloned", 
and the 2002 LP "Trinity".

Tabbed by Unholy Crusada


Guitar 1: Kragen [DGCFAD]
Guitar 2: Vince  [DGCFAD]


NOTE: For Seed and Cloned versions, tune to Eb tuning instead.


Intro


Guitar 1 (Clean, let ring)

D|---------|------------------------|------------------------|
A|-3-------|-------------3----------|-------------3----------|
F|----0----|-------0--------0-----0-|-------0--------0-----0-|
C|-------4-|----4-----4--------4----|----4-----4--------4----|
G|---------|-3----------------------|-3----------------------|
D|---------|------------------------|------------------------|
                                    |                        |
                                    |                        |
                                    |                        |
Guitar 2 (Distortion)               |                        |
                                    |                        |
D|---------|------------------------|------------------------|
A|---------|------------------------|------------------------|
F|---------|------------------------|------------------------|
C|---------|-5~---------------------|-(5~)-------------------|
G|---------|-3~---------------------|-(3~)-------------------|
D|---------|------------------------|------------------------|




D|------------------------|------------------------|
A|-------------3----------|----------------3-------|
F|-------0--------0-----0-|-------0-----------0----|
C|----4-----4--------4----|----4-----------------4-|
G|-2----------------------|-0----------------------|
D|------------------------|----------3~------------|
 |                        |                        |
 |                        |                        |
 |                        |                        |
 |                        |                        |
 |                        |                        |
D|------------------------|------------------------|
A|------------------------|------------------------|
F|------------------------|------------------------|
C|-4~---------------------|-2~---------------------|
G|-2~---------------------|-0~-------5~----------0-|
D|------------------------|----------3~-------3----|
                                              * 



D|------------------------|------------------------|
A|-------------3----------|-------------3----------|
F|-------0--------0-----0-|-------0--------0-----0-|
C|----4-----4--------4----|----4-----4--------4----|
G|-3----------------------|-3----------------------|
D|------------------------|------------------------|
 |                        |                        |
 |                        |                        |
 |                        |                        |
 |                        |                        |
 |                        |                        |
D|------------------------|------------------------|
A|------------------------|------------------------|
F|------------------------|-5~---------------------|
C|-5~---------------------|-5~---------------------|
G|-3~---------------------|-3~---------------------|
D|------------------------|------------------------|




D|------------------------|------------------------|
A|-------------3----------|----------------3-------|
F|-------0--------0-----0-|-------0-----------0----|
C|----4-----4--------4----|----4-----------------4-|
G|-2----------------------|-0----------------------|
D|------------------------|----------3~------------|
 |                        |                        |
 |                        |                        |
 |                        |                        |
 |                        |                        |
 |                        |                        |
D|------------------------|------------------------|
A|------------------------|------------------------|
F|------------------------|------------------------|
C|-4~---------------------|-2~---------------------|
G|-2~---------------------|-0~-------5~----------0-|
D|------------------------|----------3~-------3----|
                                              * 
 


D|------------------------|------------------------|
A|-------------3----------|-------------3----------|
F|-------0--------0-----0-|-------0--------0-----0-|
C|----4-----4--------4----|----4-----4--------4----|
G|-3----------------------|-3----------------------|
D|------------------------|------------------------|
 |                        |                        |
 |                        |                        |
 |                        |                        |
 |                        |                        |
 |                        |                        |
D|------------------------|------------------------|
A|------------------------|------------------------|
F|------------------------|------------------------|
C|-4~------5~--------5----|-4~------5~--------5----|
G|-3~---33-3~-----33-3-33-|-3~---33-3~-----33-3-33-|
D|------------------------|------------------------|  
        **        **   **        **        **   **




D|------------------------|------------------------|
A|-------------3----------|----------------3-------|
F|-------0--------0-----0-|-------0-----------0----|
C|----4-----4--------4----|----4-----------------4-|
G|-2----------------------|-0----------------------|
D|------------------------|----------3~------------|
 |                        |                        |
 |                        |                        |
 |                        |                        |
 |                        |                        |
 |                        |                        |
D|------------------------|------------------------|
A|------------------------|------------------------|
F|------------------------|------------------------|
C|-5~------4~--------4----|-2~-------------5--4----|
G|-2~---22-2~-----22-2-22-|-0~----00-5~----------5-|
D|------------------------|----------3~------------|
        **        **   **         ** 



D|------------------------|------------------------|
A|-------------3----------|-------------3----------|
F|-------0--------0-----0-|-------0--------0-----0-|
C|----4-----4--------4----|----4-----4--------4----|
G|-3----------------------|-3----------------------|
D|------------------------|------------------------|
 |                        |                        |
 |                        |                        |
 |                        |                        |
 |                        |                        |
 |                        |                        |
D|------------------------|------------------------|
A|------------------------|------------------------|
F|------------------------|------------------------|
C|-4~------5~--------5----|-4~------5~--------5----|
G|-3~---33-3~-----33-3-33-|-3~---33-3~-----33-3-33-|
D|------------------------|------------------------|  
        **        **   **        **        **   **




D|------------------------|------------------------|
A|-------------3----------|----------------3-------|
F|-------0--------0-----0-|-------0-----------0----|
C|----4-----4--------4----|----4-----------------4-|
G|-2----------------------|-0----------------------|
D|------------------------|----------3~------------|
 |                        |                        |
 |                        |                        |
 |                        |                        |
 |                        |                        |
 |                        |                        |
D|------------------------|------------------------|
A|------------------------|------------------------|
F|------------------------|------------------------|
C|-5~------4~--------4----|-2~-------------5--4----|
G|-2~---22-2~-----22-2-22-|-0~----00-5~----------5-|
D|------------------------|----------3~------------|
        **        **   **         **   




Main Riff A
(Both Guitars Distortion)


  Guitar 1
D|----------------------|----------------------|
A|----------------------|----------------------|
F|----------------------|----------------------|
C|------44------55------|------44------55------|
G|-3333----3333----3355-|-3333----3333----3355-|
D|----------------------|----------------------|
 | ****    ****    **** | ****    ****    **** |
 |                      |                      |
 |                      |                      |
 |                      |                      |
 |Guitar 2              |                      |
D|----------------------|----------------------|
A|----------------------|----------------------|
F|----------------------|----------------------|
C|------44------55------|------44------55------|
G|-3333----3333----3355-|-3333----3333----3355-|
D|----------------------|----------------------| 
   ****    ****    ****   ****    ****    **** 


                                                 
D|----------------------|----------------------|
A|----------------------|----------------------|
F|----------------------|----------------------|
C|------44------55------|--------------5544----|
G|-2222----2222----2255-|-000-555----------55--|
D|----------------------|---------3333---------|
 | ****    ****    **** | *** *** ****         |  
 |                      |                      |
 |                      |                      |
 |                      |                      |
 |                      |                      |
D|----------------------|----------------------|
A|----------------------|----------------------|
F|----------------------|----------------------|
C|------44------55------|--------------5544----|
G|-2222----2222----2255-|-000-555----------55--|
D|----------------------|---------3333---------|
   ****    ****    ****   *** *** **** 


Play X 2

-------------

Main Riff B



  Guitar 1
D|----------------------|----------------------|
A|----------------------|----------------------|
F|----------------------|----------------------|
C|------44------55---55-|--4---44------55---55-|
G|-3333----3333----33---|-3-33----3333----33---|
D|----------------------|----------------------|
 | ****    ****    **   | * **    ****    **   |
 |                      |                      |
 |                      |                      |
 |                      |                      |
 |Guitar 2              |                      |
D|----------------------|----------------------|
A|----------------------|----------------------|
F|----------------------|----------------------|
C|------44------55------|------44------55------|
G|-3333----3333----3355-|-3333----3333----3355-|
D|----------------------|----------------------| 
   ****    ****    ****   ****    ****    **** 


                                                 
D|----------------------|----------------------|
A|----------------------|----------------------|
F|----------------------|----------------------|
C|--4---44------55-554--|--------------5544----|
G|-2-22----2222-------5-|-000-555----------55--|
D|----------------------|---------3333---------|
 | * **    ****         | *** *** ****         |  
 |                      |                      |
 |                      |                      |
 |                      |                      |
 |                      |                      |
D|----------------------|----------------------|
A|----------------------|----------------------|
F|----------------------|----------------------|
C|------44------55------|--------------5544----|
G|-2222----2222----2255-|-000-555----------55--|
D|----------------------|---------3333---------|
   ****    ****    ****   *** *** ****



D|----------------------|----------------------|
A|----------------------|----------------------|
F|----------------------|----------------------|
C|------44------55---55-|--4---44------55---55-|
G|-3333----3333----33---|-3-33----3333----33---|
D|----------------------|----------------------|
 | ****    ****    **   | * **    ****    **   |
 |                      |                      |
 |                      |                      |
 |                      |                      |
 |                      |                      |
D|----------------------|----------------------|
A|----------------------|----------------------|
F|----------------------|----------------------|
C|------44------55------|------44------55------|
G|-3333----3333----3355-|-3333----3333----3355-|
D|----------------------|----------------------| 
   ****    ****    ****   ****    ****    **** 


                                                 
D|----------------------|----------------------|
A|----------------------|----------------------|
F|----------------------|----------------------|
C|--4---44------55-554--|-2---2----------5-4---|
G|-2-22----2222-------5-|-0---0---0--5~------5-|
D|----------------------|------------3~--------|
 | * **    ****         |         *            |  
 |                      |                      |
 |                      |                      |
 |                      |                      |
 |                      |                      |
D|----------------------|----------------------|
A|----------------------|----------------------|
F|----------------------|----------------------|
C|------44------55------|-2---2----------5-4---|
G|-2222----2222----2255-|-0---0---0--5~------5-|
D|----------------------|------------3~--------|
   ****    ****    ****           *





Verse
(Both Guitars Distortion)


  Guitar 1
D|------------------------|------------------------|
A|------------------------|------------------------|
F|------------4~----------|------------4~----------|
C|-5~---------5~----------|-5~---------5~----------|
G|-3~---------3~-------33-|-3~---------3~-------22-|
D|------------------------|------------------------|
 |                     ** |                     ** |
 |                        |                        |
 |                        |                        |
 |                        |                        |
 |Guitar 2                |                        |
D|------------------------|------------------------|
A|------------------------|------------------------|
F|------------4~----------|------------4~----------|
C|-5~---------5~----------|-5~---------5~----------|
G|-3~---------3~-------33-|-3~---------3~-------22-|
D|------------------------|------------------------|
                       **                       **



D|------------------------|------------------------|
A|------------------------|------------------------|
F|------------2~----------|------------------------|
C|-4~---------4~----------|-2~---------------5-4---|
G|-2~---------2~-------22-|-0~----00--5~---------5-|
D|------------------------|-----------3~-----------|
 |                     ** |       **               |
 |                        |                        |
 |                        |                        |
 |                        |                        |
 |                        |                        |
D|------------------------|------------------------|
A|------------------------|------------------------|
F|------------2~----------|------------------------|
C|-4~---------4~----------|-5~---------------5-4---|
G|-2~---------2~-------22-|-3~----00--5~---------5-|
D|------------------------|-----------3~-----------|
                       **         **



 
D|------------------------|------------------------|
A|------------------------|------------------------|
F|------------4~----------|------------4~----------|
C|-5~---------5~----------|-5~---------5~----------|
G|-3~---------3~-------33-|-3~---------3~-------22-|
D|------------------------|------------------------|
 |                     ** |                     ** |
 |                        |                        |
 |                        |                        |
 |                        |                        |
 |                        |                        |
D|------------------------|------------------------|
A|------------------------|------------------------|
F|------------4~----------|------------4~----------|
C|-5~---------5~----------|-5~---------5~----------|
G|-3~---------3~-------33-|-3~---------3~-------22-|
D|------------------------|------------------------|
                       **                       **



D|------------------------|------------------------|
A|------------------------|------------------------|
F|------------2~----------|------------------------|
C|-4~---------4~----------|-2~---------------------|
G|-2~---------2~-------22-|-0~----00--5~-----------|
D|------------------------|-----------3~-----------|
 |                     ** |       **               |
 |                        |                        |
 |                        |                        |
 |                        |                        |
 |                        |                        |
D|------------------------|------------------------|
A|------------------------|------------------------|
F|------------2~----------|------------------------|
C|-4~---------4~----------|-2~---------------------|
G|-2~---------2~-------22-|-0~----00--5~----/7--4--|
D|------------------------|-----------3~----/5--2--|
                       **         **



Chorus:
(Both Guitars Distortion)


Guitar 1
D|-------------------------------|-------------------------------|
A|-------------------------------|-------------------------------|
F|-------------------------------|-------5----------5--------5~--|
C|-------2----------2--------2~--|-------5----------5--------5~--|
G|-------2----------2--------2~--|-3-3-3-3----3-3-3-3----333-3~--|
D|-0-0-0-0----0-0-0-0----000-0~--|-------------------------------|
 | * * *      * * *      ***     | * * *      * * *      ***     |
 |                               |                               |
 |                               |                               |
 |                               |                               |
 |Guitar 2                       |                               |
D|-------------------------------|-------------------------------|
A|-------------------------------|-------------------------------|
F|-------------------------------|-------5----------5--------5~--|
C|-------2----------2--------2~--|-------5----------5--------5~--|
G|-------2----------2--------2~--|-3-3-3-3----3-3-3-3----333-3~--|
D|-0-0-0-0----0-0-0-0----000-0~--|-------------------------------|
   * * *      * * *      ***       * * *      * * *      ***

  

D|-------------------------------|-------------------------------|
A|-------------------------------|-------------------------------|
F|-------2----------2--------2~--|-------4~----------3~----------|
C|-------2----------2--------2~--|-2-2-2-2~----1-1-1-1~-55442244-|
G|-0-0-0-0----0-0-0-0----000-0~--|-------------------------------|
D|-------------------------------|-------------------------------|
 | * * *      * * *      ***     | * * *                ******** |
 |                               |                               |
 |                               |                               |
 |                               |                               |
 |                               |                               |
D|-------------------------------|-------------------------------|
A|-------------------------------|-------------------------------|
F|-------2----------2--------2~--|-------4~----------3~------3~--|
C|-------2----------2--------2~--|-2-2-2-2~----1-1-1-1~--111-1~--|
G|-0-0-0-0----0-0-0-0----000-0~--|-------------------------------|
D|-------------------------------|-------------------------------|
   * * *      * * *      ***       * * *       * * *     ***        



D|-------------------------------|-------------------------------|
A|-------------------------------|-------------------------------|
F|-------------------------------|-------------------------------|
C|---2h4p2h5p4---2h4p2h5p4h5p4p2-|---2h4p2h5p4---2h4p2h5p4h5p4p2-|
G|-------------------------------|-------------------------------|
D|-0-----------0-----------------|-0-----------0-----------------|
 | *           *                 | *           *                 |
 |                               |                               |
 |                               |                               |
 |                               |                               |
 |                               |                               |
D|-------------------------------|-------------------------------|
A|-------------------------------|-------------------------------|
F|-------------------------------|-------5----------5--------5~--|
C|-------2----------2--------2~--|-------5----------5--------5~--|
G|-------2----------2--------2~--|-3-3-3-3----3-3-3-3----333-3~--|
D|-0-0-0-0----0-0-0-0----000-0~--|-------------------------------|
   * * *      * * *      ***       * * *      * * *      ***  


                                 
D|-------------------------------|---------------------------------|
A|-------------------------------|-----------------------------4~--|
F|-------------------------------|-------------------------2-------|
C|---2h4p2h5p4---2h4p2h5p4h5p4p2-|-----1---1-------4---4-----------|
G|-------------------------------|-2-2---2---2-2-2---2---2---2-----|
D|-0-----------0-----------------|---------------------------------|
 | *           *                 | * *   *   * * *   *   *   *     |
 |                               |                                 |
 |                               |                                 |
 |                               |                                 |
 |                               |                                 |
D|-------------------------------|---------------------------------|
A|-------------------------------|---------------------------------|
F|-------2----------2--------2~--|-----------------------------4---|
C|-------2----------2--------2~--|-----1---1-------4---4---5-4---4-|
G|-0-0-0-0----0-0-0-0----000-0~--|-2-2---2---2-2-2---2---2---------|
D|-------------------------------|---------------------------------|
   * * *      * * *      ***       * *   *   * * *   *   * * *   *




Post Chorus 1
(Warning! This part is a BITCH!)


  Guitar 1
D|---------------------------------|---------------------------------|
A|---------------------------------|---------------------------------|
F|---------4---------------4-------|---------4---------2---2---------|
C|-2-5-2-5---5-1-4-1-4-1-4---4-1-4-|-0-3-0-3---3-0-3---------5-4-2-0-|
G|---------------------------------|-----------------4---4-----------|
D|---------------------------------|---------------------------------|
 | * * * *     * * * * * *     * * | * * * *     * * *   *           |
 |                                 |                                 |
 |                                 |                                 |
 |                                 |                                 |
 |Guitar 2                         |                                 |
D|---------------------------------|---------------------------------|
A|---------------------------------|---------------------------------|
F|---------4---------------4-------|---------4---------2---2---------|
C|-2-5-2-5---5-1-4-1-4-1-4---4-1-4-|-0-3-0-3---3-0-3---------5-4-2-0-|
G|---------------------------------|-----------------4---4-----------|
D|---------------------------------|---------------------------------|
   * * * *     * * * * * *     * *   * * * *     * * *   *           



D|---------------------------------|---------------------------------|
A|---------------------------------|---------------------------------|
F|-----4---4---4-------4---4---4---|-----4---4---4-----2---2---------|
C|-2-5---5---5---5-1-4---4---4---4-|-0-3---3---3---3---------5-4-2-0-|
G|---------------------------------|-----------------4---4-----------|
D|---------------------------------|---------------------------------|
 | * *   *   *   * * *   *   *   * | * *   *   *   * *   *           |
 |                                 |                                 |
 |                                 |                                 |
 |                                 |                                 |
 |                                 |                                 |
D|---------------------------------|---------------------------------|
A|-----5-------5\------4-------4\--|-----3-------3\------------------|
F|-----4---4---4\------4---4---4\--|-----4---4---4\----2---2---------|
C|-2-5-------------1-4-------------|-0-3---------------------5-4-2-0-|
G|---------------------------------|-----------------4---4-----------|
D|---------------------------------|---------------------------------|
   * *             * *               * *             *   *


PLAY 2X

--------------

Bridge


 Guitar 1 (Clean)
D|---------------------------------|---------------------------------|
A|---------------------------------|---------------------------------|
F|-5---5-5---5-5---5-5---5-5---5---|-5---5-5---5-5---5-5---5-5---5---|
C|-5---5-5---5-5---5-5---5-5---5---|-5---5-5---5-5---5-5---5-5---5---|
G|-3---3-3---3-3---3-3---3-3---3---|-3---3-3---3-3---3-3---3-3---3---|
D|---------------------------------|---------------------------------|
 |                                 |                                 |
 |                                 |                                 |
 |                                 |                                 |
 |                                 |                                 |
 |Guitar 2 (Distortion)            |                                 |
D|---------------------------------|---------------------------------|
A|---------------------------------|---------------------------------|
F|---------------------------------|---------------------------------|
C|---------------------------------|------------------/5~----4-------|
G|-3~--------------------------3p5-|-3~--------------------------5---|
D|---------------------------------|---------------------------------|



D|---------------------------------|---------------------------------|
A|---------------------------------|---------------------------------|
F|-4---4-4---4-2---2-2---2-4---4---|-6---6-7---7-7---7-7---7-5---5---|
C|-4---4-4---4-4---4-4---4-4---4---|-6---6-7---7-7---7-7---7-5---5---|
G|-2---2-2---2-2---2-2---2-2---2---|-4---4-5---5-5---5-5---5-3---3---|
D|---------------------------------|---------------------------------|
 |                                 |                                 |
 |                                 |                                 |
 |                                 |                                 |
 |                                 |                                 |
 |                                 |                                 |
D|---------------------------------|---------------------------------|
A|---------------------------------|---------------------------------|
F|---------------------------------|---------------------------------|
C|---------------------------------|-------------5-----5-----4-------|
G|-2~------------------------------|-4-----5---------------------5---|
D|---------------------------------|---------------------------------|


PLAY 2X

-------------

Repeat Main Riff A x 1
Repeat Main Riff B x 1
Repeat Verse x 1


Repeat Chorus x 1, but for the final bar, play this instead:
  

  Guitar 1
D|---------------------------------|
A|---------------------------------|
F|---------------0-----------2-----|
C|-----1---4-1-----4-1-5-4-5---5-4-|
G|-2-2---2-----2-------------------|
D|---------------------------------|
 | * * * * * * * * * *             |
 |                                 |
 |                                 |
 |                                 |
 |Guitar 2                         |
D|---------------------------------|
A|---------------------------------|
F|---------------0-----------2-----|
C|-----1---4-1-----4-1-5-4-5---5-4-|
G|-2-2---2-----2-------------------|
D|---------------------------------|
   * * * * * * * * * *   



Post Chorus 2


  Guitar 1 (Distortion)
D|---------------------------------|---------------------------------|
A|---------------------------------|---------------------------------|
F|---------------------------------|---------------------------------|
C|---------------------------------|---------------------------------|
G|-------------------------------2-|-3-----------3-----------------3-|
D|-0-0-3-2-3-2-0-2-3-2-3-2-3-2-0---|---2-3-2-3-2---2-3-2-3-2-3-2-0---|
 | * * * * * * * * * * * * * * *   |   * * * * *   * * * * * * * *   |
 |                                 |                                 |
 |                                 |                                 |
 |                                 |                                 |
 |Guitar 2 (Distortion)            |                                 |
D|---------------------------------|---------------------------------|
A|---------------------------------|---------------------------------|
F|---------------------------------|---------------------------------|
C|---------------------------------|---------------------------------|
G|-------------------------------2-|-3-----------3-----------------3-|
D|-0-0-3-2-3-2-0-2-3-2-3-2-3-2-0---|---2-3-2-3-2---2-3-2-3-2-3-2-0---|
   * * * * * * * * * * * * * * *       * * * * *   * * * * * * * *           



D|---------------------------------|---------------------------------|
A|---------------------------------|---------------------------------|
F|---------------------------------|---------------0-----------2-----|
C|---------------------------------|-----1---4-1-----4-1-5-4-5---5-4-|
G|-0-----------0-----------------0-|-2-2---2-----2-------------------|
D|---2-3-2-3-2---2-3-2-3-2-3-2-0---|---------------------------------|
 |   * * * * *   * * * * * * * *   | * * * * * * * * * *             |
 |                                 |                                 |
 |                                 |                                 |
 |                                 |                                 |
 |                                 |                                 |
D|---------------------------------|---------------------------------|
A|---------------------------------|---------------------------------|
F|---------------------------------|---------------0-----------2-----|
C|---------------------------------|-----1---4-1-----4-1-5-4-5---5-4-|
G|-0-----------0-----------------0-|-2-2---2-----2-------------------|
D|---2-3-2-3-2---2-3-2-3-2-3-2-0---|---------------------------------|
     * * * * *   * * * * * * * *       * * * * *   * * *   



D|---------------------------------|---------------------------------|
A|---------------------------------|---------------------------------|
F|---------------------------------|---------------------------------|
C|---------------------------------|---------------------------------|
G|-------------------------------2-|-3-----------3-----------------3-|
D|-0-0-3-2-3-2-0-2-3-2-3-2-3-2-0---|---2-3-2-3-2---2-3-2-3-2-3-2-0---|
 | * * * * * * * * * * * * * * *   |   * * * * *   * * * * * * * *   |
 |                                 |                                 |
 |                                 |                                 |
 |                                 |                                 |
 |                                 |                                 |
D|---------------------------------|---------------------------------|
A|---------------------------------|---------------------------------|
F|---------------------------------|---------------------------------|
C|---------------------------------|---------------------------------|
G|-------------------------------2-|-3-----------3-----------------3-|
D|-0-0-3-2-3-2-0-2-3-2-3-2-3-2-0---|---2-3-2-3-2---2-3-2-3-2-3-2-0---|
   * * * * * * * * * * * * * * *       * * * * *   * * * * * * * *           



D|---------------------------------|---------------------------------|
A|---------------------------------|---------------------------3-----|
F|---------------------------------|---------0-----2-----5-4-5---5-4-|
C|---------------------------------|-1-1-4-1---4-1---5-4-------------|
G|-0-----------0-----------------0-|---------------------------------|
D|---2-3-2-3-2---2-3-2-3-2-3-2-0---|---------------------------------|
 |   * * * * *   * * * * * * * *   | * * * * * * * * * *             |
 |                                 |                                 |
 |                                 |                                 |
 |                                 |                                 |
 |                                 |                                 |
D|---------------------------------|---------------------------------|
A|---------------------------------|---------------------------------|
F|---------------------------------|---------------0-----------2-----|
C|---------------------------------|-----1---4-1-----4-1-5-4-5---5-4-|
G|-0-----------0-----------------0-|-2-2---2-----2-------------------|
D|---2-3-2-3-2---2-3-2-3-2-3-2-0---|---------------------------------|
     * * * * *   * * * * * * * *       * * * * *   * * *   



Kragen's Solo [Part 1]


  Guitar 1 (Distortion)
D|---------------------------------|---------------------------------|
A|---------------------------------|---------------------------------|
F|/7~----------5~--------------4h5-|/7~----------5~--------------4h5-|
C|---------------------------------|---------------------------------|
G|---------------------------------|---------------------------------|
D|---------------------------------|---------------------------------|
 |                                 |                                 |
 |                                 |                                 |
 |                                 |                                 |
 |                                 |                                 |
 |Guitar 2 (Clean)                 |                                 |
D|---------------------------------|---------------------------------|
A|---------------------------------|---------------------------------|
F|-5---5-5---5-5---5-5---5-5---5---|-5---5-5---5-5---5-5---5-5---5---|
C|-5---5-5---5-5---5-5---5-5---5---|-5---5-5---5-5---5-5---5-5---5---|
G|-3---3-3---3-3---3-3---3-3---3---|-3---3-3---3-3---3-3---3-3---3---|
D|---------------------------------|---------------------------------|



D|---------------------------------|---------------------------------|
A|-----------------------------7-8-|/10~------8p7h8------7h8p7---7-8-|
F|-4~---------/9~------------9-----|---------------------------9-----|
C|---------------------------------|---------------------------------|
G|---------------------------------|---------------------------------|
D|---------------------------------|---------------------------------|
 |                                 |                                 |
 |                                 |                                 |
 |                                 |                                 |
 |                                 |                                 |
D|---------------------------------|---------------------------------|
A|---------------------------------|---------------------------------|
F|-4---4-4---4-2---2-2---2-4---4---|-6---6-7---7-7---7-7---7-5---5---|
C|-4---4-4---4-4---4-4---4-4---4---|-6---6-7---7-7---7-7---7-5---5---|
G|-2---2-2---2-2---2-2---2-2---2---|-4---4-5---5-5---5-5---5-3---3---|
D|---------------------------------|---------------------------------|



D|---------------------------------|-------------------------12--11--|
A|/12~---------13~-----------------|-13b15---------r13---------------|
F|---------------------------------|---------------------------------|
C|---------------------------------|---------------------------------|
G|---------------------------------|---------------------------------|
D|---------------------------------|---------------------------------|
 |                                 |                                 |
 |                                 |                                 |
 |                                 |                                 |
 |                                 |                                 |
 |                                 |                                 |
D|---------------------------------|---------------------------------|
A|---------------------------------|---------------------------------|
F|-5---5-5---5-5---5-5---5-5---5---|-5---5-5---5-5---5-5---5-5---5---|
C|-5---5-5---5-5---5-5---5-5---5---|-5---5-5---5-5---5-5---5-5---5---|
G|-3---3-3---3-3---3-3---3-3---3---|-3---3-3---3-3---3-3---3-3---3---|
D|---------------------------------|---------------------------------|



D|-12~------------------12--15-17--|-17b19~-----17-15h17p15----15--------|
A|---------------------------------|------------------------17----17b20--|
F|---------------------------------|-------------------------------------|
C|---------------------------------|-------------------------------------|
G|---------------------------------|-------------------------------------|
D|---------------------------------|-------------------------------------|
 |                                 |                                     |
 |                                 |                                     |
 |                                 |                                     |
 |                                 |                                     |
D|---------------------------------|-------------------------------------|
A|---------------------------------|-------------------------------------|
F|-4---4-4---4-2---2-2---2-4---4---|-6---6--7---7--7---7--7---7--5---5---|
C|-4---4-4---4-4---4-4---4-4---4---|-6---6--7---7--7---7--7---7--5---5---|
G|-2---2-2---2-2---2-2---2-2---2---|-4---4--5---5--5---5--5---5--3---3---|
D|---------------------------------|-------------------------------------|



Kragen's Solo [Part 2]


  Guitar 1 (Distortion)
D|-------------15p12----14p12----12--------------------|
A|----------13-------13-------13----13-----------------|
F|-------12----------------------------14-12-----------|
C|----14-------------------------------------14-12-----|
G|-15----------------------------------------------14--|
D|-----------------------------------------------------|
 |                                                     |
 |                                                     |
 |                                                     |
 |                                                     |
 |Guitar 2 (Distortion)                                |
D|-----------------------------------------------------|
A|-----------------------------------------------------|
F|-5--------5--------5--------5--------7-----7---------|
C|-5--------5--------5--------5--------7-----7---------|
G|-3--3--3--3--3--3--3--3--3--3--3--3--5--5--5--5------|
D|-----------------------------------------------------|
      *  *     *  *     *  *     *  *     *     *           



D|-------------15p12----14p12----12/14-17-14h17p14----|
A|----------13-------13-------13-------------------15-|
F|-------12-------------------------------------------|
C|----14----------------------------------------------|
G|-15-------------------------------------------------|
D|----------------------------------------------------|
 |                                                    |
 |                                                    |
 |                                                    |
 |                                                    |
 |                                                    |
D|----------------------------------------------------|
A|----------------------------------------------------|
F|-5--------5--------5--------5--------7-----7--------|
C|-5--------5--------5--------5--------7-----7--------|
G|-3--3--3--3--3--3--3--3--3--3--3--3--5--5--5--5-----|
D|----------------------------------------------------|
      *  *     *  *     *  *     *  *     *     *




D|-19-17h19p17-----17-14h17p14-----14-10h14p10---------|
A|-------------19-------------17-----------------------|
F|---------------------------------------------9b------|
C|-----------------------------------------------------|
G|-----------------------------------------------------|
D|-----------------------------------------------------|
 |                                                     |
 |                                                     |
 |                                                     |
 |                                                     |
 |                                                     |
D|-----------------------------------------------------|
A|-----------------------------------------------------|
F|-4--------4--------2--------2--------4-----4---------|
C|-4--------4--------4--------4--------4-----4---------|
G|-2--2--2--2--2--2--2--2--2--2--2--2--2--2--2--2------|
D|-----------------------------------------------------|
      *  *     *  *     *  *     *  *     *     *            




D|----------------------------------------------------|
A|-----------------/17--15--13h15p13p12---------------|
F|-r9--11--12--11------------------------12-----------|
C|-------------------------------------------12-------|
G|----------------------------------------------------|
D|----------------------------------------------------|
 |                                                    |
 |                                                    |
 |                                                    |
 |                                                    |
 |                                                    |
D|----------------------------------------------------|
A|----------------------------------------------------|
F|-2~-------------------------------------------------|
C|-2~---------5-p-4-p-2-------------5-p-4-p-2-h-4-----|
G|-0~---0--0------------------------------------------|
D|-----------------------3~---3--3--------------------|
        *  *                  *  *




D|-----------------------------------------------------|
A|-----------------------------------------------------|
F|------9---12------11~-----11-11-12-14p12p11----11h12-|
C|-10-----------------------------------------14-------|
G|-----------------------------------------------------|
D|-----------------------------------------------------|
 |                                                     |
 |                                                     |
 |                                                     |
 |                                                     |
 |                                                     |
D|-----------------------------------------------------|
A|-----------------------------------------------------|
F|-5--------5--------5--------5--------7-----7---------|
C|-5--------5--------5--------5--------7-----7---------|
G|-3--3--3--3--3--3--3--3--3--3--3--3--5--5--5--5------|
D|-----------------------------------------------------|
      *  *     *  *     *  *     *  *     *     *       




D|----------------------------------------------------|
A|----------------------------------------------------|
F|----------------------------------------------------|
C|-----------------??????????????---------------------|
G|----------------------------------------------------|
D|----------------------------------------------------|
 |                                                    |
 |                                                    |
 |                                                    |
 |                                                    |
 |                                                    |
D|----------------------------------------------------|
A|----------------------------------------------------|
F|-5--------5--------5--------5--------7-----7--------|
C|-5--------5--------5--------5--------7-----7--------|
G|-3--3--3--3--3--3--3--3--3--3--3--3--5--5--5--5-----|
D|----------------------------------------------------|
      *  *     *  *     *  *     *  *     *     *




D|-------------------17b19~-------------------------14-|
A|-12~-------------------------------------------------|
F|-----------------------------------------------------|
C|-----------------------------------------------------|
G|-----------------------------------------------------|
D|-----------------------------------------------------|
 |                                                     |
 |                                                     |
 |                                                     |
 |                                                     |
 |                                                     |
D|-----------------------------------------------------|
A|-----------------------------------------------------|
F|-4--------4--------2--------2--------4-----4---------|
C|-4--------4--------4--------4--------4-----4---------|
G|-2--2--2--2--2--2--2--2--2--2--2--2--2--2--2--2------|
D|-----------------------------------------------------|
      *  *     *  *     *  *     *  *     *     *       



D|-15--14h15p14p12-------------------------------------|
A|-----------------15-13-12----------------------------|
F|--------------------------11b12r11-----11b12b11----11|
C|-----------------------------------12-----------12---|
G|-----------------------------------------------------|
D|-----------------------------------------------------|
 |                                                     |
 |                                                     |
 |                                                     |
 |                                                     |
 |                                                     |
D|-----------------------------------------------------|
A|-----------------------------------------------------|
F|-2~--------------------------------------------------|
C|-2~---------5-p-4-p-2-------------5-p-4-p-2-h-4------|
G|-0~---0--0-------------------------------------------|
D|-----------------------3~---3--3---------------------|
        *  *                  *  *



Final Note of solo:

|-----|
|-----|
|--9--|
|-----|
|-----|
|-----|


Outro A


  Guitar 1 (Distortion)
D|---------------------------------|---------------------------------|
A|---------------------------------|---------------------------------|
F|---------------------------------|---------------------------------|
C|---------------------------------|---------------------------------|
G|-------2~--------4~-------4~-----|-------5~--------7~--------------|
D|-0-0-0-0~--2-2-2-2~--2222-2~-----|-3-3-3-3~--5-5-5-5~--33335555----|
 | * * *     * * *     ****          * * *     * * *     ********    |
 |                                 |                                 |
 |                                 |                                 |       X 2
 |                                 |                                 |
 |Guitar 2 (Distortion)            |                                 |
D|---------------------------------|---------------------------------|
A|---------------------------------|---------------------------------|
F|---------------------------------|---------------------------------|
C|---------------------------------|---------------------------------|
G|-------2~--------4~-------4~-----|-------5~--------7~--------------|
D|-0-0-0-0~--2-2-2-2~--2222-2~-----|-3-3-3-3~--5-5-5-5~--33335555----|
   * * *     * * *     ****          * * *     * * *     ********


Outro B


  Guitar 1 (Distortion)
D|---------------------------------|---------------------------------|
A|-------------------------------------------------------------------|
F|-------4~--------6~-------6~-----|-------7~--------9~--------------|
C|-2-2-2-2~--4-4-4-4~--4444-4~-----|-5-5-5-5~--7-7-7-7~--55557777----|
G|---------------------------------|---------------------------------|
D|---------------------------------|---------------------------------|
 | * * *     * * *     ****          * * *     * * *     ********    |
 |                                 |                                 |
 |                                 |                                 |       X 2
 |                                 |                                 |
 |Guitar 2 (Distortion)            |                                 |
D|---------------------------------|---------------------------------|
A|---------------------------------|---------------------------------|
F|---------------------------------|---------------------------------|
C|---------------------------------|---------------------------------|
G|-------2~--------4~-------4~-----|-------5~--------7~--------------|
D|-0-0-0-0~--2-2-2-2~--2222-2~-----|-3-3-3-3~--5-5-5-5~--33335555----|
   * * *     * * *     ****          * * *     * * *     ********


Outro C


  Guitar 1 (Distortion)
D|---------------------------------|---------------------------------|
A|---------------------------------|---------------------------------|
F|-------2p0~------2p0~-----0~-----|-------2p0~------2p0~------------|
C|-------2p0~------2p0~-----0~-----|-------2p0~------2p0~------------|
G|---------------------------------|---------------------------------|
D|-0-0-0-----2-2-2-----2222--------|-3-3-3-----5-5-5-----33335555----|
 | * * *     * * *     ****        | * * *     * * *     ********    |
 |                                 |                                 |
 |                                 |                                 |       X 2
 |                                 |                                 |
 |Guitar 2 (Distortion)            |                                 |
D|---------------------------------|---------------------------------|
A|---------------------------------|---------------------------------|
F|-------2p0~------2p0~-----0~-----|-------2p0~------2p0~------------|
C|-------2p0~------2p0~-----0~-----|-------2p0~------2p0~------------|
G|---------------------------------|---------------------------------|
D|-0-0-0-----2-2-2-----2222--------|-3-3-3-----5-5-5-----33335555----|
   * * *     * * *     ****          * * *     * * *     ********


Repeat Outro A x 2
Repeat Outro B x 2



End with:

D|-----------|
A|-----------|
F|-----------|
C|-----------|
G|-------2~--|
D|-0-0-0-0~--|
   * * *  





This took quite a while to tab out, but I think it's worth it.
This was done entirely by ear, so there's bound to be some mistakes.
If you have any questions, corrections, or comments, please leave them here.
I will get the last bit of Kragen's solo at some point, so please be patient.

Thank you, and I hope you enjoyed the tab!


--- Unholy Crusada
   
Tap to rate this tab
 
# A B C D E F G H I J K L M N O P Q R S T U V W X Y Z