Song name
# A B C D E F G H I J K L M N O P Q R S T U V W X Y Z

Psalmboken - Tryggare Kan Ingen Vara tab

This is a swedish church text...

Tryggare kan ingen vara...

e||---------|---------|---------|---------|
B||---------|---------|-------0-|---------|
G||---------|-2-------|-----0---|-2-0-0---|
D||-0-2-3-3-|---3-3-2-|-2-3-----|-------3-|
A||---------|---------|---------|---------|
E||---------|---------|---------|---------|

e||---------|---------|---------|---------|
B||-----0-0-|-3-0-0---|---1-1---|---------|
G||---------|-------2-|-------0-|---------|
D||-0-0-----|---------|-2-------|---2-2---|
A||---------|---------|---------|-3-----5-|
E||---------|---------|---------|---------|
Tap to rate this tab
# A B C D E F G H I J K L M N O P Q R S T U V W X Y Z