Song name
# A B C D E F G H I J K L M N O P Q R S T U V W X Y Z

Pseudopod - All Over You tab

Verse:
Bm G
F# G

Chorus:
Bm D A E

Solo:

e-----------------------------------------------------------|
B---5h7----5------------------------------------------------|
G--------------7-6--------4p2----4--------------------------|
D-----------------------4-------4-----2---------2h4---------|
G----------------------------------------5----5------5------|
B-----------------------------------------------------------|

e-----------------------------------------5-5------5-5------|
B------------------------2---3---5---5h7-----5h7------------|
G--------------2----4---------------------------------------|
D----------2h4---4----4---4---4-----------------------------|
G---2h4h5---------------------------------------------------|
B-----------------------------------------------------------|
Really Fast
e---7/10-9--------------------------9b10-9p7-9p7----7-------|
B-----------10/12-----10--------------------------10--10p7--|
G------------------11----9--11------------------------------|
D-----------------------------------------------------------|
G-----------------------------------------------------------|
B-----------------------------------------------------------|

e------------7----------------------------------------------|
B------------------------10----7----------------------------|
G---9b10b9------9p7-----------------------------------------|
D---------------------9------9-----9--7---------------------|
G----------------------------------------9--7-----0--7h9----|
B-----------------------------------------------------------|

e--------------------------------------------10h12----------|
B------------------------------------10h12-----------10h12--|
G-------------------------10h12-----------------------------|
D------7h9------9h11----------------------------------------|
G---0--------0--------0-----------0--------0--------0-------|
B-----------------------------------------------------------|

e-----10h12----10h12----10h12--------12b15b12-10-10h12------|
B-----------------------------------------------------------|
G-----------------------------------------------------------|
D-----------------------------------------------------------|
G--0---------0---------0------------------------------------|
B-----------------------------------------------------------|
7 times
e----------------|---10----------|--------------------------|
B---12p10--------|-----12p10-----|-10-----------------------|
G-----------11---|------------11-|-----11-------------------|
D----------------|---------------|---------9----------------|
G----------------|---------------|-----------12--9----------|
B----------------|---------------|--------------------------|

e-----------------------------------------------------------|
B-----------------------------------------------------------|
G--------------------------7/6------------------------------|
D---4-5-7h9---------7h9---------9/7--5--4-------------------|
G-----------------------------------------------------------|
B-----------------------------------------------------------|
Tap to rate this tab
 
# A B C D E F G H I J K L M N O P Q R S T U V W X Y Z