Song name
# A B C D E F G H I J K L M N O P Q R S T U V W X Y Z

Pso - Wait tab

Help us improve GuitareTab! Take a short survey!
t. See http://www.olga.net/faq/ for more information.                     #
#-----------------------------------------------------------------------------#

Date: Tue, 25 May 1999 20:31:47 -0500
From: Jay Montgomery 
Subject: p/pso/wait.crd

"Wait"
by PSO
Written By John Richard of PSO 

Transcribed By Jay Montgomery



The song is a basic progression.  Bar chords.

D  Bm  G  A

      D                       Bm                  G
       |     |    |    |
e---------5----5----5----5----2----2----2----2----3----3----3----3-------------
B---------7----7----7----7----3----3----3----3----3----3----3----3-------------
G---------7----7----7----7----4----4----4----4----4----4----4----4-------------
D---------7----7----7----7----4----4----4----4----5----5----5----5-------------
A------5--5----5----5----5----2----2----2----2----5----5----5----5-------------
E-------------------------------------------------3----3----3----3-------------
      A
e-----5----5----5----5----------------------------------------------------
B-----5----5----5----5----------------------------------------------------
G-----6----6----6----6----------------------------------------------------
D-----7----7----7----7----------------------------------------------------
A-----7----7----7----7----------------------------------------------------
E-----5----5----5----5----------------------------------------------------

There's a lot of improvving over those chords.  This is a little bit.

e-------5-----------------------2---------------------3------------------
B-------7---------7--5----------3---2--3--2-----------3-----------3------
G-------7---7--9-------7-6------4------------4--2-----4--------4---------
D-------7-----------------------4---------------------5--5--7------------
A----5--5--------------------2--2---------------------5------------------
E--------------------------------------------------3--3------------------

e-------5----------------------------------------------------------------
B-------5-------------5--7-----------------------------------------------
G-------6----6-----6-----------------------------------------------------
D-------7-------7--------------------------------------------------------
A-------7----------------------------------------------------------------
E----5--5----------------------------------------------------------------
Related for Wait tab